ISO-10303-21;
HEADER;
/* Generated by software containing ST-Developer
 * from STEP Tools, Inc. (www.steptools.com) 
 */
/* OPTION: using custom schema-name function */

FILE_DESCRIPTION(
/* description */ (''),
/* implementation_level */ '2;1');

FILE_NAME(
/* name */ 'CP09T308N.stp',
/* time_stamp */ '2021-12-22T08:51:17+09:00',
/* author */ (''),
/* organization */ (''),
/* preprocessor_version */ 'ST-DEVELOPER v16',
/* originating_system */ 'SIEMENS PLM Software NX 10.0',
/* authorisation */ '');

FILE_SCHEMA (('AUTOMOTIVE_DESIGN { 1 0 10303 214 3 1 1 1 }'));
ENDSEC;

DATA;
#10=CONSTRUCTIVE_GEOMETRY_REPRESENTATION_RELATIONSHIP(
'supplemental geometry','',#26,#11);
#11=CONSTRUCTIVE_GEOMETRY_REPRESENTATION('supplemental geometry',(#384,
#385,#386),#622);
#12=GEOMETRICALLY_BOUNDED_WIREFRAME_SHAPE_REPRESENTATION(
'CP09T308N-None',(#27),#622);
#13=SHAPE_REPRESENTATION_RELATIONSHIP('None',
'relationship between CP09T308N-None and CP09T308N-None',#26,#15);
#14=SHAPE_REPRESENTATION_RELATIONSHIP('None',
'relationship between CP09T308N-None and CP09T308N-None',#26,#12);
#15=ADVANCED_BREP_SHAPE_REPRESENTATION('CP09T308N-None',(#33),#622);
#16=SHAPE_DEFINITION_REPRESENTATION(#17,#26);
#17=PRODUCT_DEFINITION_SHAPE('','',#18);
#18=PRODUCT_DEFINITION('part definition','',#20,#19);
#19=PRODUCT_DEFINITION_CONTEXT('part definition',#25,'design');
#20=PRODUCT_DEFINITION_FORMATION_WITH_SPECIFIED_SOURCE(' ',' ',#22,
 .NOT_KNOWN.);
#21=PRODUCT_RELATED_PRODUCT_CATEGORY('part','',(#22));
#22=PRODUCT('CP09T308L','CP09T308L','NOT SPECIFIED',(#23));
#23=PRODUCT_CONTEXT('',#25,'mechanical');
#24=APPLICATION_PROTOCOL_DEFINITION('international standard',
'automotive_design',2010,#25);
#25=APPLICATION_CONTEXT(
'core data for automotive mechanical design processes');
#26=SHAPE_REPRESENTATION('CP09T308N-None',(#379),#622);
#27=GEOMETRIC_CURVE_SET('None',(#530,#531,#287,#288,#289,#290,#291,#292,
#293,#294));
#28=SURFACE_STYLE_USAGE(.BOTH.,#29);
#29=SURFACE_SIDE_STYLE('',(#30));
#30=SURFACE_STYLE_FILL_AREA(#31);
#31=FILL_AREA_STYLE('',(#32));
#32=FILL_AREA_STYLE_COLOUR('',#242);
#33=MANIFOLD_SOLID_BREP('',#34);
#34=CLOSED_SHELL('',(#59,#60,#61,#62,#63,#64,#65,#66,#67,#68,#69,#70,#71,
#72,#73,#74));
#35=TOROIDAL_SURFACE('',#416,5.2,3.);
#36=TOROIDAL_SURFACE('',#418,5.2,3.);
#37=CYLINDRICAL_SURFACE('',#410,2.2);
#38=CYLINDRICAL_SURFACE('',#412,2.2);
#39=CYLINDRICAL_SURFACE('',#419,3.);
#40=CYLINDRICAL_SURFACE('',#420,3.);
#41=CONICAL_SURFACE('',#395,0.4141550863616,11.);
#42=CONICAL_SURFACE('',#403,0.4141550863616,11.);
#43=CONICAL_SURFACE('',#405,0.4141550863616,11.);
#44=CONICAL_SURFACE('',#407,0.4141550863616,11.);
#45=FACE_OUTER_BOUND('',#87,.T.);
#46=FACE_OUTER_BOUND('',#90,.T.);
#47=FACE_OUTER_BOUND('',#91,.T.);
#48=FACE_OUTER_BOUND('',#92,.T.);
#49=FACE_OUTER_BOUND('',#93,.T.);
#50=FACE_OUTER_BOUND('',#94,.T.);
#51=FACE_OUTER_BOUND('',#95,.T.);
#52=FACE_OUTER_BOUND('',#96,.T.);
#53=FACE_OUTER_BOUND('',#97,.T.);
#54=FACE_OUTER_BOUND('',#98,.T.);
#55=FACE_OUTER_BOUND('',#99,.T.);
#56=FACE_OUTER_BOUND('',#100,.T.);
#57=FACE_OUTER_BOUND('',#101,.T.);
#58=FACE_OUTER_BOUND('',#102,.T.);
#59=ADVANCED_FACE('',(#81,#82),#75,.T.);
#60=ADVANCED_FACE('',(#45),#41,.T.);
#61=ADVANCED_FACE('',(#83,#84),#76,.F.);
#62=ADVANCED_FACE('',(#46),#77,.T.);
#63=ADVANCED_FACE('',(#47),#42,.T.);
#64=ADVANCED_FACE('',(#48),#78,.T.);
#65=ADVANCED_FACE('',(#49),#43,.T.);
#66=ADVANCED_FACE('',(#50),#79,.T.);
#67=ADVANCED_FACE('',(#51),#44,.T.);
#68=ADVANCED_FACE('',(#52),#80,.T.);
#69=ADVANCED_FACE('',(#53),#37,.F.);
#70=ADVANCED_FACE('',(#54),#38,.F.);
#71=ADVANCED_FACE('',(#55),#35,.T.);
#72=ADVANCED_FACE('',(#56),#36,.T.);
#73=ADVANCED_FACE('',(#57),#39,.F.);
#74=ADVANCED_FACE('',(#58),#40,.F.);
#75=PLANE('',#393);
#76=PLANE('',#401);
#77=PLANE('',#402);
#78=PLANE('',#404);
#79=PLANE('',#406);
#80=PLANE('',#408);
#81=FACE_BOUND('',#85,.T.);
#82=FACE_BOUND('',#86,.T.);
#83=FACE_BOUND('',#88,.T.);
#84=FACE_BOUND('',#89,.T.);
#85=EDGE_LOOP('',(#103,#104,#105,#106,#107,#108,#109,#110));
#86=EDGE_LOOP('',(#111,#112));
#87=EDGE_LOOP('',(#113,#114,#115,#116));
#88=EDGE_LOOP('',(#117,#118,#119,#120,#121,#122,#123,#124));
#89=EDGE_LOOP('',(#125,#126));
#90=EDGE_LOOP('',(#127,#128,#129,#130));
#91=EDGE_LOOP('',(#131,#132,#133,#134));
#92=EDGE_LOOP('',(#135,#136,#137,#138));
#93=EDGE_LOOP('',(#139,#140,#141,#142));
#94=EDGE_LOOP('',(#143,#144,#145,#146));
#95=EDGE_LOOP('',(#147,#148,#149,#150));
#96=EDGE_LOOP('',(#151,#152,#153,#154));
#97=EDGE_LOOP('',(#155,#156,#157,#158));
#98=EDGE_LOOP('',(#159,#160,#161,#162));
#99=EDGE_LOOP('',(#163,#164,#165,#166));
#100=EDGE_LOOP('',(#167,#168,#169,#170));
#101=EDGE_LOOP('',(#171,#172,#173,#174));
#102=EDGE_LOOP('',(#175,#176,#177,#178));
#103=ORIENTED_EDGE('',*,*,#203,.F.);
#104=ORIENTED_EDGE('',*,*,#204,.F.);
#105=ORIENTED_EDGE('',*,*,#205,.F.);
#106=ORIENTED_EDGE('',*,*,#206,.F.);
#107=ORIENTED_EDGE('',*,*,#207,.F.);
#108=ORIENTED_EDGE('',*,*,#208,.F.);
#109=ORIENTED_EDGE('',*,*,#209,.F.);
#110=ORIENTED_EDGE('',*,*,#210,.F.);
#111=ORIENTED_EDGE('',*,*,#211,.F.);
#112=ORIENTED_EDGE('',*,*,#212,.F.);
#113=ORIENTED_EDGE('',*,*,#213,.F.);
#114=ORIENTED_EDGE('',*,*,#210,.T.);
#115=ORIENTED_EDGE('',*,*,#214,.F.);
#116=ORIENTED_EDGE('',*,*,#215,.T.);
#117=ORIENTED_EDGE('',*,*,#216,.F.);
#118=ORIENTED_EDGE('',*,*,#217,.F.);
#119=ORIENTED_EDGE('',*,*,#218,.F.);
#120=ORIENTED_EDGE('',*,*,#219,.F.);
#121=ORIENTED_EDGE('',*,*,#220,.F.);
#122=ORIENTED_EDGE('',*,*,#221,.F.);
#123=ORIENTED_EDGE('',*,*,#222,.F.);
#124=ORIENTED_EDGE('',*,*,#215,.F.);
#125=ORIENTED_EDGE('',*,*,#223,.F.);
#126=ORIENTED_EDGE('',*,*,#224,.F.);
#127=ORIENTED_EDGE('',*,*,#222,.T.);
#128=ORIENTED_EDGE('',*,*,#225,.T.);
#129=ORIENTED_EDGE('',*,*,#203,.T.);
#130=ORIENTED_EDGE('',*,*,#213,.T.);
#131=ORIENTED_EDGE('',*,*,#226,.F.);
#132=ORIENTED_EDGE('',*,*,#204,.T.);
#133=ORIENTED_EDGE('',*,*,#225,.F.);
#134=ORIENTED_EDGE('',*,*,#221,.T.);
#135=ORIENTED_EDGE('',*,*,#220,.T.);
#136=ORIENTED_EDGE('',*,*,#227,.T.);
#137=ORIENTED_EDGE('',*,*,#205,.T.);
#138=ORIENTED_EDGE('',*,*,#226,.T.);
#139=ORIENTED_EDGE('',*,*,#228,.F.);
#140=ORIENTED_EDGE('',*,*,#206,.T.);
#141=ORIENTED_EDGE('',*,*,#227,.F.);
#142=ORIENTED_EDGE('',*,*,#219,.T.);
#143=ORIENTED_EDGE('',*,*,#218,.T.);
#144=ORIENTED_EDGE('',*,*,#229,.T.);
#145=ORIENTED_EDGE('',*,*,#207,.T.);
#146=ORIENTED_EDGE('',*,*,#228,.T.);
#147=ORIENTED_EDGE('',*,*,#230,.F.);
#148=ORIENTED_EDGE('',*,*,#208,.T.);
#149=ORIENTED_EDGE('',*,*,#229,.F.);
#150=ORIENTED_EDGE('',*,*,#217,.T.);
#151=ORIENTED_EDGE('',*,*,#209,.T.);
#152=ORIENTED_EDGE('',*,*,#230,.T.);
#153=ORIENTED_EDGE('',*,*,#216,.T.);
#154=ORIENTED_EDGE('',*,*,#214,.T.);
#155=ORIENTED_EDGE('',*,*,#231,.F.);
#156=ORIENTED_EDGE('',*,*,#232,.T.);
#157=ORIENTED_EDGE('',*,*,#233,.T.);
#158=ORIENTED_EDGE('',*,*,#224,.T.);
#159=ORIENTED_EDGE('',*,*,#233,.F.);
#160=ORIENTED_EDGE('',*,*,#234,.T.);
#161=ORIENTED_EDGE('',*,*,#231,.T.);
#162=ORIENTED_EDGE('',*,*,#223,.T.);
#163=ORIENTED_EDGE('',*,*,#235,.F.);
#164=ORIENTED_EDGE('',*,*,#236,.F.);
#165=ORIENTED_EDGE('',*,*,#234,.F.);
#166=ORIENTED_EDGE('',*,*,#237,.T.);
#167=ORIENTED_EDGE('',*,*,#232,.F.);
#168=ORIENTED_EDGE('',*,*,#236,.T.);
#169=ORIENTED_EDGE('',*,*,#238,.F.);
#170=ORIENTED_EDGE('',*,*,#237,.F.);
#171=ORIENTED_EDGE('',*,*,#239,.T.);
#172=ORIENTED_EDGE('',*,*,#238,.T.);
#173=ORIENTED_EDGE('',*,*,#240,.F.);
#174=ORIENTED_EDGE('',*,*,#212,.T.);
#175=ORIENTED_EDGE('',*,*,#240,.T.);
#176=ORIENTED_EDGE('',*,*,#235,.T.);
#177=ORIENTED_EDGE('',*,*,#239,.F.);
#178=ORIENTED_EDGE('',*,*,#211,.T.);
#179=VERTEX_POINT('',#544);
#180=VERTEX_POINT('',#545);
#181=VERTEX_POINT('',#547);
#182=VERTEX_POINT('',#549);
#183=VERTEX_POINT('',#551);
#184=VERTEX_POINT('',#553);
#185=VERTEX_POINT('',#555);
#186=VERTEX_POINT('',#557);
#187=VERTEX_POINT('',#560);
#188=VERTEX_POINT('',#561);
#189=VERTEX_POINT('',#565);
#190=VERTEX_POINT('',#567);
#191=VERTEX_POINT('',#571);
#192=VERTEX_POINT('',#573);
#193=VERTEX_POINT('',#575);
#194=VERTEX_POINT('',#577);
#195=VERTEX_POINT('',#579);
#196=VERTEX_POINT('',#581);
#197=VERTEX_POINT('',#584);
#198=VERTEX_POINT('',#585);
#199=VERTEX_POINT('',#602);
#200=VERTEX_POINT('',#604);
#201=VERTEX_POINT('',#610);
#202=VERTEX_POINT('',#611);
#203=EDGE_CURVE('',#179,#180,#299,.T.);
#204=EDGE_CURVE('',#181,#179,#247,.T.);
#205=EDGE_CURVE('',#182,#181,#300,.T.);
#206=EDGE_CURVE('',#183,#182,#248,.T.);
#207=EDGE_CURVE('',#184,#183,#301,.T.);
#208=EDGE_CURVE('',#185,#184,#249,.T.);
#209=EDGE_CURVE('',#186,#185,#302,.T.);
#210=EDGE_CURVE('',#180,#186,#250,.T.);
#211=EDGE_CURVE('',#187,#188,#251,.T.);
#212=EDGE_CURVE('',#188,#187,#252,.T.);
#213=EDGE_CURVE('',#180,#189,#303,.T.);
#214=EDGE_CURVE('',#190,#186,#304,.T.);
#215=EDGE_CURVE('',#190,#189,#253,.T.);
#216=EDGE_CURVE('',#191,#190,#305,.T.);
#217=EDGE_CURVE('',#192,#191,#254,.T.);
#218=EDGE_CURVE('',#193,#192,#306,.T.);
#219=EDGE_CURVE('',#194,#193,#255,.T.);
#220=EDGE_CURVE('',#195,#194,#307,.T.);
#221=EDGE_CURVE('',#196,#195,#256,.T.);
#222=EDGE_CURVE('',#189,#196,#308,.T.);
#223=EDGE_CURVE('',#197,#198,#257,.T.);
#224=EDGE_CURVE('',#198,#197,#258,.T.);
#225=EDGE_CURVE('',#196,#179,#309,.T.);
#226=EDGE_CURVE('',#181,#195,#310,.T.);
#227=EDGE_CURVE('',#194,#182,#311,.T.);
#228=EDGE_CURVE('',#183,#193,#312,.T.);
#229=EDGE_CURVE('',#192,#184,#313,.T.);
#230=EDGE_CURVE('',#185,#191,#314,.T.);
#231=EDGE_CURVE('',#199,#197,#315,.T.);
#232=EDGE_CURVE('',#199,#200,#259,.T.);
#233=EDGE_CURVE('',#200,#198,#316,.T.);
#234=EDGE_CURVE('',#200,#199,#260,.T.);
#235=EDGE_CURVE('',#201,#202,#261,.T.);
#236=EDGE_CURVE('',#199,#201,#262,.T.);
#237=EDGE_CURVE('',#200,#202,#263,.T.);
#238=EDGE_CURVE('',#202,#201,#264,.T.);
#239=EDGE_CURVE('',#187,#202,#317,.T.);
#240=EDGE_CURVE('',#188,#201,#318,.T.);
#241=COLOUR_RGB('Strong Stone',0.576470588235294,0.54508278019379,0.392156862745098);
#242=COLOUR_RGB('cutting part',0.8,0.8,0.8);
#243=CIRCLE('',#380,0.8);
#244=CIRCLE('',#381,0.8);
#245=CIRCLE('',#382,0.8);
#246=CIRCLE('',#383,0.8);
#247=CIRCLE('',#387,0.8);
#248=CIRCLE('',#388,0.8);
#249=CIRCLE('',#389,0.8);
#250=CIRCLE('',#390,0.8);
#251=CIRCLE('',#391,3.);
#252=CIRCLE('',#392,3.);
#253=CIRCLE('',#394,0.02831017272323);
#254=CIRCLE('',#396,0.02831017272323);
#255=CIRCLE('',#397,0.02831017272323);
#256=CIRCLE('',#398,0.02831017272323);
#257=CIRCLE('',#399,2.2);
#258=CIRCLE('',#400,2.2);
#259=CIRCLE('',#409,2.2);
#260=CIRCLE('',#411,2.2);
#261=CIRCLE('',#413,3.);
#262=CIRCLE('',#414,3.);
#263=CIRCLE('',#415,3.);
#264=CIRCLE('',#417,3.);
#265=CURVE_STYLE('',#276,POSITIVE_LENGTH_MEASURE(0.18),#378);
#266=CURVE_STYLE('',#277,POSITIVE_LENGTH_MEASURE(0.18),#378);
#267=CURVE_STYLE('',#278,POSITIVE_LENGTH_MEASURE(0.18),#378);
#268=CURVE_STYLE('',#279,POSITIVE_LENGTH_MEASURE(0.18),#378);
#269=CURVE_STYLE('',#280,POSITIVE_LENGTH_MEASURE(0.18),#378);
#270=CURVE_STYLE('',#281,POSITIVE_LENGTH_MEASURE(0.18),#378);
#271=CURVE_STYLE('',#282,POSITIVE_LENGTH_MEASURE(0.18),#378);
#272=CURVE_STYLE('',#283,POSITIVE_LENGTH_MEASURE(0.18),#378);
#273=CURVE_STYLE('',#284,POSITIVE_LENGTH_MEASURE(0.13),#377);
#274=CURVE_STYLE('',#285,POSITIVE_LENGTH_MEASURE(0.13),#377);
#275=CURVE_STYLE('',#286,POSITIVE_LENGTH_MEASURE(0.13),#241);
#276=DRAUGHTING_PRE_DEFINED_CURVE_FONT('continuous');
#277=DRAUGHTING_PRE_DEFINED_CURVE_FONT('continuous');
#278=DRAUGHTING_PRE_DEFINED_CURVE_FONT('continuous');
#279=DRAUGHTING_PRE_DEFINED_CURVE_FONT('continuous');
#280=DRAUGHTING_PRE_DEFINED_CURVE_FONT('continuous');
#281=DRAUGHTING_PRE_DEFINED_CURVE_FONT('continuous');
#282=DRAUGHTING_PRE_DEFINED_CURVE_FONT('continuous');
#283=DRAUGHTING_PRE_DEFINED_CURVE_FONT('continuous');
#284=DRAUGHTING_PRE_DEFINED_CURVE_FONT('continuous');
#285=DRAUGHTING_PRE_DEFINED_CURVE_FONT('continuous');
#286=DRAUGHTING_PRE_DEFINED_CURVE_FONT('continuous');
#287=TRIMMED_CURVE('',#295,(PARAMETER_VALUE(0.)),(PARAMETER_VALUE(1.)),
 .T.,.PARAMETER.);
#288=TRIMMED_CURVE('',#296,(PARAMETER_VALUE(0.)),(PARAMETER_VALUE(1.)),
 .T.,.PARAMETER.);
#289=TRIMMED_CURVE('',#297,(PARAMETER_VALUE(0.)),(PARAMETER_VALUE(1.)),
 .T.,.PARAMETER.);
#290=TRIMMED_CURVE('',#298,(PARAMETER_VALUE(0.)),(PARAMETER_VALUE(1.)),
 .T.,.PARAMETER.);
#291=TRIMMED_CURVE('',#243,(PARAMETER_VALUE(0.)),(PARAMETER_VALUE(80.00000000022)),
 .T.,.PARAMETER.);
#292=TRIMMED_CURVE('',#244,(PARAMETER_VALUE(0.)),(PARAMETER_VALUE(99.99999999973)),
 .T.,.PARAMETER.);
#293=TRIMMED_CURVE('',#245,(PARAMETER_VALUE(0.)),(PARAMETER_VALUE(80.00000000022)),
 .T.,.PARAMETER.);
#294=TRIMMED_CURVE('',#246,(PARAMETER_VALUE(0.)),(PARAMETER_VALUE(99.99999999973)),
 .T.,.PARAMETER.);
#295=LINE('',#532,#319);
#296=LINE('',#533,#320);
#297=LINE('',#534,#321);
#298=LINE('',#535,#322);
#299=LINE('',#543,#323);
#300=LINE('',#548,#324);
#301=LINE('',#552,#325);
#302=LINE('',#556,#326);
#303=LINE('',#564,#327);
#304=LINE('',#566,#328);
#305=LINE('',#570,#329);
#306=LINE('',#574,#330);
#307=LINE('',#578,#331);
#308=LINE('',#582,#332);
#309=LINE('',#588,#333);
#310=LINE('',#590,#334);
#311=LINE('',#592,#335);
#312=LINE('',#594,#336);
#313=LINE('',#596,#337);
#314=LINE('',#598,#338);
#315=LINE('',#601,#339);
#316=LINE('',#605,#340);
#317=LINE('',#617,#341);
#318=LINE('',#618,#342);
#319=VECTOR('',#423,8.047255899195);
#320=VECTOR('',#424,8.04725589919489);
#321=VECTOR('',#425,8.047255899195);
#322=VECTOR('',#426,8.04725589919489);
#323=VECTOR('',#441,1.);
#324=VECTOR('',#444,1.);
#325=VECTOR('',#447,1.);
#326=VECTOR('',#450,1.);
#327=VECTOR('',#459,1.);
#328=VECTOR('',#460,1.);
#329=VECTOR('',#465,1.);
#330=VECTOR('',#468,1.);
#331=VECTOR('',#471,1.);
#332=VECTOR('',#474,1.);
#333=VECTOR('',#481,1.);
#334=VECTOR('',#484,1.);
#335=VECTOR('',#487,1.);
#336=VECTOR('',#490,1.);
#337=VECTOR('',#493,1.);
#338=VECTOR('',#496,1.);
#339=VECTOR('',#501,1.);
#340=VECTOR('',#504,1.);
#341=VECTOR('',#523,1.);
#342=VECTOR('',#524,1.);
#343=PRESENTATION_LAYER_ASSIGNMENT('1','Layer 1',(#530,#531,#384,#385,#386,
#33));
#344=PRESENTATION_LAYER_ASSIGNMENT('2','Layer 2',(#287,#288,#289,#290,#291,
#292,#293,#294));
#345=STYLED_ITEM('',(#359),#530);
#346=STYLED_ITEM('',(#360),#531);
#347=STYLED_ITEM('',(#361),#287);
#348=STYLED_ITEM('',(#362),#288);
#349=STYLED_ITEM('',(#363),#289);
#350=STYLED_ITEM('',(#364),#290);
#351=STYLED_ITEM('',(#365),#291);
#352=STYLED_ITEM('',(#366),#292);
#353=STYLED_ITEM('',(#367),#293);
#354=STYLED_ITEM('',(#368),#294);
#355=STYLED_ITEM('',(#369),#384);
#356=STYLED_ITEM('',(#370),#385);
#357=STYLED_ITEM('',(#371),#386);
#358=STYLED_ITEM('',(#372),#33);
#359=PRESENTATION_STYLE_ASSIGNMENT((#373));
#360=PRESENTATION_STYLE_ASSIGNMENT((#374));
#361=PRESENTATION_STYLE_ASSIGNMENT((#265));
#362=PRESENTATION_STYLE_ASSIGNMENT((#266));
#363=PRESENTATION_STYLE_ASSIGNMENT((#267));
#364=PRESENTATION_STYLE_ASSIGNMENT((#268));
#365=PRESENTATION_STYLE_ASSIGNMENT((#269));
#366=PRESENTATION_STYLE_ASSIGNMENT((#270));
#367=PRESENTATION_STYLE_ASSIGNMENT((#271));
#368=PRESENTATION_STYLE_ASSIGNMENT((#272));
#369=PRESENTATION_STYLE_ASSIGNMENT((#273));
#370=PRESENTATION_STYLE_ASSIGNMENT((#274));
#371=PRESENTATION_STYLE_ASSIGNMENT((#275));
#372=PRESENTATION_STYLE_ASSIGNMENT((#28));
#373=POINT_STYLE('',#375,POSITIVE_LENGTH_MEASURE(3.),#377);
#374=POINT_STYLE('',#376,POSITIVE_LENGTH_MEASURE(3.),#377);
#375=PRE_DEFINED_POINT_MARKER_SYMBOL('plus');
#376=PRE_DEFINED_POINT_MARKER_SYMBOL('plus');
#377=DRAUGHTING_PRE_DEFINED_COLOUR('yellow');
#378=DRAUGHTING_PRE_DEFINED_COLOUR('blue');
#379=AXIS2_PLACEMENT_3D('',#529,#421,#422);
#380=AXIS2_PLACEMENT_3D('',#536,#427,#428);
#381=AXIS2_PLACEMENT_3D('',#537,#429,#430);
#382=AXIS2_PLACEMENT_3D('',#538,#431,#432);
#383=AXIS2_PLACEMENT_3D('',#539,#433,#434);
#384=AXIS2_PLACEMENT_3D('MCS',#540,#435,#436);
#385=AXIS2_PLACEMENT_3D('PCS',#541,#437,#438);
#386=AXIS2_PLACEMENT_3D('',#542,#439,#440);
#387=AXIS2_PLACEMENT_3D('',#546,#442,#443);
#388=AXIS2_PLACEMENT_3D('',#550,#445,#446);
#389=AXIS2_PLACEMENT_3D('',#554,#448,#449);
#390=AXIS2_PLACEMENT_3D('',#558,#451,#452);
#391=AXIS2_PLACEMENT_3D('',#559,#453,#454);
#392=AXIS2_PLACEMENT_3D('',#562,#455,#456);
#393=AXIS2_PLACEMENT_3D('',#563,#457,#458);
#394=AXIS2_PLACEMENT_3D('',#568,#461,#462);
#395=AXIS2_PLACEMENT_3D('',#569,#463,#464);
#396=AXIS2_PLACEMENT_3D('',#572,#466,#467);
#397=AXIS2_PLACEMENT_3D('',#576,#469,#470);
#398=AXIS2_PLACEMENT_3D('',#580,#472,#473);
#399=AXIS2_PLACEMENT_3D('',#583,#475,#476);
#400=AXIS2_PLACEMENT_3D('',#586,#477,#478);
#401=AXIS2_PLACEMENT_3D('',#587,#479,#480);
#402=AXIS2_PLACEMENT_3D('',#589,#482,#483);
#403=AXIS2_PLACEMENT_3D('',#591,#485,#486);
#404=AXIS2_PLACEMENT_3D('',#593,#488,#489);
#405=AXIS2_PLACEMENT_3D('',#595,#491,#492);
#406=AXIS2_PLACEMENT_3D('',#597,#494,#495);
#407=AXIS2_PLACEMENT_3D('',#599,#497,#498);
#408=AXIS2_PLACEMENT_3D('',#600,#499,#500);
#409=AXIS2_PLACEMENT_3D('',#603,#502,#503);
#410=AXIS2_PLACEMENT_3D('',#606,#505,#506);
#411=AXIS2_PLACEMENT_3D('',#607,#507,#508);
#412=AXIS2_PLACEMENT_3D('',#608,#509,#510);
#413=AXIS2_PLACEMENT_3D('',#609,#511,#512);
#414=AXIS2_PLACEMENT_3D('',#612,#513,#514);
#415=AXIS2_PLACEMENT_3D('',#613,#515,#516);
#416=AXIS2_PLACEMENT_3D('',#614,#517,#518);
#417=AXIS2_PLACEMENT_3D('',#615,#519,#520);
#418=AXIS2_PLACEMENT_3D('',#616,#521,#522);
#419=AXIS2_PLACEMENT_3D('',#619,#525,#526);
#420=AXIS2_PLACEMENT_3D('',#620,#527,#528);
#421=DIRECTION('',(0.,0.,1.));
#422=DIRECTION('',(1.,0.,0.));
#423=DIRECTION('',(-1.,0.,0.));
#424=DIRECTION('',(0.173648177666902,0.984807753012213,0.));
#425=DIRECTION('',(1.,0.,0.));
#426=DIRECTION('',(-0.173648177666902,-0.984807753012213,0.));
#427=DIRECTION('',(0.,0.,-1.));
#428=DIRECTION('',(0.984807753012884,-0.173648177663097,0.));
#429=DIRECTION('',(0.,0.,-1.));
#430=DIRECTION('',(0.,-1.,0.));
#431=DIRECTION('',(0.,0.,-1.));
#432=DIRECTION('',(-0.984807753012884,0.173648177663097,0.));
#433=DIRECTION('',(0.,0.,-1.));
#434=DIRECTION('',(0.,1.,0.));
#435=DIRECTION('',(0.,0.,1.));
#436=DIRECTION('',(1.,0.,0.));
#437=DIRECTION('',(0.,0.,1.));
#438=DIRECTION('',(1.,0.,0.));
#439=DIRECTION('',(0.,0.,1.));
#440=DIRECTION('',(1.,0.,0.));
#441=DIRECTION('',(-0.173648177666902,-0.984807753012213,0.));
#442=DIRECTION('',(0.,0.,-1.));
#443=DIRECTION('',(0.,1.,0.));
#444=DIRECTION('',(1.,0.,0.));
#445=DIRECTION('',(0.,0.,-1.));
#446=DIRECTION('',(-0.984807753012884,0.173648177663097,0.));
#447=DIRECTION('',(0.173648177666902,0.984807753012213,0.));
#448=DIRECTION('',(0.,0.,-1.));
#449=DIRECTION('',(0.,-1.,0.));
#450=DIRECTION('',(-1.,0.,0.));
#451=DIRECTION('',(0.,0.,-1.));
#452=DIRECTION('',(0.984807753012884,-0.173648177663097,0.));
#453=DIRECTION('',(0.,0.,1.));
#454=DIRECTION('',(-0.642787609686564,0.766044443118957,0.));
#455=DIRECTION('',(0.,0.,1.));
#456=DIRECTION('',(0.642787609686564,-0.766044443118957,0.));
#457=DIRECTION('',(0.,0.,1.));
#458=DIRECTION('',(-0.642787609686505,0.766044443119006,0.));
#459=DIRECTION('',(-0.187910177991294,0.033133634329429,-0.981627183447669));
#460=DIRECTION('',(-1.20786661030497E-13,-0.190808995376495,0.981627183447674));
#461=DIRECTION('',(0.,0.,1.));
#462=DIRECTION('',(5.16706692473527E-11,-0.999999999999998,0.));
#463=DIRECTION('',(0.,0.,1.));
#464=DIRECTION('',(0.984807753012213,-0.173648177666902,-7.34695861805682E-17));
#465=DIRECTION('',(1.,0.,0.));
#466=DIRECTION('',(0.,0.,1.));
#467=DIRECTION('',(-0.984807753031604,0.173648177556908,0.));
#468=DIRECTION('',(-0.173648177666902,-0.984807753012213,0.));
#469=DIRECTION('',(0.,0.,1.));
#470=DIRECTION('',(-5.16706692473527E-11,0.999999999999998,0.));
#471=DIRECTION('',(-1.,0.,0.));
#472=DIRECTION('',(0.,0.,1.));
#473=DIRECTION('',(0.984807753031604,-0.173648177556908,0.));
#474=DIRECTION('',(0.173648177666902,0.984807753012213,0.));
#475=DIRECTION('',(0.,0.,-1.));
#476=DIRECTION('',(0.642787609686398,-0.766044443119097,0.));
#477=DIRECTION('',(0.,0.,-1.));
#478=DIRECTION('',(-0.642787609686398,0.766044443119097,0.));
#479=DIRECTION('',(0.,0.,1.));
#480=DIRECTION('',(-0.642787609686505,0.766044443119006,0.));
#481=DIRECTION('',(0.187910177991293,-0.0331336343296387,0.981627183447662));
#482=DIRECTION('',(0.966714060826806,-0.170457771554001,-0.190808995376501));
#483=DIRECTION('',(-0.173648177666921,-0.98480775301221,3.64365728752854E-15));
#484=DIRECTION('',(1.20786661030497E-13,-0.190808995376495,-0.981627183447674));
#485=DIRECTION('',(0.,0.,1.));
#486=DIRECTION('',(0.,1.,-7.34695861805682E-17));
#487=DIRECTION('',(1.20786661030497E-13,0.190808995376495,0.981627183447674));
#488=DIRECTION('',(0.,0.981627183447674,-0.190808995376495));
#489=DIRECTION('',(1.,0.,0.));
#490=DIRECTION('',(0.187910177991294,-0.033133634329429,-0.981627183447669));
#491=DIRECTION('',(0.,0.,1.));
#492=DIRECTION('',(-0.984807753012213,0.173648177666902,-7.34695861805682E-17));
#493=DIRECTION('',(-0.187910177991293,0.0331336343296387,0.981627183447662));
#494=DIRECTION('',(-0.966714060826806,0.170457771554001,-0.190808995376501));
#495=DIRECTION('',(0.173648177666921,0.98480775301221,3.64365728752854E-15));
#496=DIRECTION('',(-1.20786661030497E-13,0.190808995376495,-0.981627183447674));
#497=DIRECTION('',(0.,0.,1.));
#498=DIRECTION('',(0.,-1.,-7.34695861805682E-17));
#499=DIRECTION('',(0.,-0.981627183447674,-0.190808995376495));
#500=DIRECTION('',(-1.,0.,0.));
#501=DIRECTION('',(-9.192992981085E-14,-7.248321388933E-14,-1.));
#502=DIRECTION('',(0.,0.,1.));
#503=DIRECTION('',(0.642787609686398,-0.766044443119097,0.));
#504=DIRECTION('',(4.400065016588E-14,3.182189878068E-14,-1.));
#505=DIRECTION('',(0.,0.,-1.));
#506=DIRECTION('',(0.642787609686505,-0.766044443119006,0.));
#507=DIRECTION('',(0.,0.,1.));
#508=DIRECTION('',(-0.642787609686505,0.766044443119007,0.));
#509=DIRECTION('',(0.,0.,-1.));
#510=DIRECTION('',(0.642787609686505,-0.766044443119006,0.));
#511=DIRECTION('',(0.,0.,-1.));
#512=DIRECTION('',(0.642787609686613,-0.766044443118916,0.));
#513=DIRECTION('',(0.766044443119007,0.642787609686505,0.));
#514=DIRECTION('',(-0.642787609686505,0.766044443119007,0.));
#515=DIRECTION('',(-0.766044443119007,-0.642787609686505,0.));
#516=DIRECTION('',(0.642787609686505,-0.766044443119007,0.));
#517=DIRECTION('',(0.,0.,-1.));
#518=DIRECTION('',(0.642787609686505,-0.766044443119006,0.));
#519=DIRECTION('',(0.,0.,-1.));
#520=DIRECTION('',(-0.642787609686505,0.766044443119007,0.));
#521=DIRECTION('',(0.,0.,-1.));
#522=DIRECTION('',(0.642787609686505,-0.766044443119006,0.));
#523=DIRECTION('',(8.520961713998E-14,2.109423746788E-14,-1.));
#524=DIRECTION('',(-1.318389841742E-13,-5.995204332976E-14,-1.));
#525=DIRECTION('',(0.,0.,-1.));
#526=DIRECTION('',(0.642787609686505,-0.766044443119006,0.));
#527=DIRECTION('',(0.,0.,-1.));
#528=DIRECTION('',(0.642787609686505,-0.766044443119006,0.));
#529=CARTESIAN_POINT('',(0.,0.,0.));
#530=CARTESIAN_POINT('',(0.,0.,0.));
#531=CARTESIAN_POINT('',(-5.67572648473,-4.7625,0.));
#532=CARTESIAN_POINT('',(3.32493228854,-4.7625,0.));
#533=CARTESIAN_POINT('',(-5.510169813065,-3.82358145787,0.));
#534=CARTESIAN_POINT('',(-3.32493228854,4.7625,0.));
#535=CARTESIAN_POINT('',(5.510169813065,3.82358145787,0.));
#536=CARTESIAN_POINT('',(3.32493228854,-3.9625,0.));
#537=CARTESIAN_POINT('',(-4.722323610655,-3.9625,0.));
#538=CARTESIAN_POINT('',(-3.32493228854,3.9625,0.));
#539=CARTESIAN_POINT('',(4.722323610655,3.9625,0.));
#540=CARTESIAN_POINT('',(0.,0.,0.));
#541=CARTESIAN_POINT('',(-5.67572648473,-4.7625,0.));
#542=CARTESIAN_POINT('',(0.,0.,0.));
#543=CARTESIAN_POINT('',(5.510169813065,3.823581457867,2.851572476526E-14));
#544=CARTESIAN_POINT('',(5.510169813065,3.82358145787,0.));
#545=CARTESIAN_POINT('',(4.11277849095,-4.10141854213,0.));
#546=CARTESIAN_POINT('',(4.722323610655,3.9625,0.));
#547=CARTESIAN_POINT('',(4.722323610655,4.7625,0.));
#548=CARTESIAN_POINT('',(-3.32493228854,4.7625,0.));
#549=CARTESIAN_POINT('',(-3.32493228854,4.7625,0.));
#550=CARTESIAN_POINT('',(-3.32493228854,3.9625,0.));
#551=CARTESIAN_POINT('',(-4.11277849095,4.101418542133,3.830543224855E-14));
#552=CARTESIAN_POINT('',(-5.510169813065,-3.823581457867,2.851572476526E-14));
#553=CARTESIAN_POINT('',(-5.510169813065,-3.82358145787,0.));
#554=CARTESIAN_POINT('',(-4.722323610655,-3.9625,0.));
#555=CARTESIAN_POINT('',(-4.722323610655,-4.7625,0.));
#556=CARTESIAN_POINT('',(3.32493228854,-4.7625,0.));
#557=CARTESIAN_POINT('',(3.32493228854,-4.7625,0.));
#558=CARTESIAN_POINT('',(3.32493228854,-3.9625,0.));
#559=CARTESIAN_POINT('',(0.,0.,0.));
#560=CARTESIAN_POINT('',(-1.92836282906,2.298133329357,0.));
#561=CARTESIAN_POINT('',(1.92836282906,-2.298133329357,0.));
#562=CARTESIAN_POINT('',(0.,0.,0.));
#563=CARTESIAN_POINT('',(0.,0.,0.));
#564=CARTESIAN_POINT('',(4.11277849095,-4.101418542133,3.830543224855E-14));
#565=CARTESIAN_POINT('',(3.352812366127,-3.967416009903,-3.97));
#566=CARTESIAN_POINT('',(3.32493228854,-3.990810172723,-3.97));
#567=CARTESIAN_POINT('',(3.324932288541,-3.990810172723,-3.97));
#568=CARTESIAN_POINT('',(3.32493228854,-3.9625,-3.97));
#569=CARTESIAN_POINT('',(3.32493228854,-3.9625,-1.985));
#570=CARTESIAN_POINT('',(-4.722323610655,-3.990810172723,-3.97));
#571=CARTESIAN_POINT('',(-4.722323610656,-3.990810172723,-3.97));
#572=CARTESIAN_POINT('',(-4.722323610655,-3.9625,-3.97));
#573=CARTESIAN_POINT('',(-4.750203688242,-3.957583990098,-3.97));
#574=CARTESIAN_POINT('',(-3.352812366127,3.967416009903,-3.97));
#575=CARTESIAN_POINT('',(-3.352812366127,3.967416009903,-3.97));
#576=CARTESIAN_POINT('',(-3.32493228854,3.9625,-3.97));
#577=CARTESIAN_POINT('',(-3.32493228854,3.990810172723,-3.97));
#578=CARTESIAN_POINT('',(4.722323610655,3.990810172723,-3.97));
#579=CARTESIAN_POINT('',(4.722323610656,3.990810172723,-3.97));
#580=CARTESIAN_POINT('',(4.722323610655,3.9625,-3.97));
#581=CARTESIAN_POINT('',(4.750203688242,3.957583990098,-3.97));
#582=CARTESIAN_POINT('',(3.352812366127,-3.967416009903,-3.97));
#583=CARTESIAN_POINT('',(0.,0.,-3.97));
#584=CARTESIAN_POINT('',(1.41413274131,-1.685297774862,-3.97));
#585=CARTESIAN_POINT('',(-1.41413274131,1.685297774862,-3.97));
#586=CARTESIAN_POINT('',(0.,0.,-3.97));
#587=CARTESIAN_POINT('',(0.,0.,-3.97));
#588=CARTESIAN_POINT('',(4.750203688242,3.957583990098,-3.97));
#589=CARTESIAN_POINT('',(3.80172520095,-5.86548941064,0.));
#590=CARTESIAN_POINT('',(4.722323610655,4.7625,0.));
#591=CARTESIAN_POINT('',(4.722323610655,3.9625,-1.985));
#592=CARTESIAN_POINT('',(-3.32493228854,3.990810172723,-3.97));
#593=CARTESIAN_POINT('',(6.795731284922,4.7625,0.));
#594=CARTESIAN_POINT('',(-4.11277849095,4.101418542133,3.830543224855E-14));
#595=CARTESIAN_POINT('',(-3.32493228854,3.9625,-1.985));
#596=CARTESIAN_POINT('',(-4.750203688242,-3.957583990098,-3.97));
#597=CARTESIAN_POINT('',(-3.80172520095,5.86548941064,0.));
#598=CARTESIAN_POINT('',(-4.722323610655,-4.7625,0.));
#599=CARTESIAN_POINT('',(-4.722323610655,-3.9625,-1.985));
#600=CARTESIAN_POINT('',(-6.795731284922,-4.7625,0.));
#601=CARTESIAN_POINT('',(1.41413274131,-1.685297774862,-3.97));
#602=CARTESIAN_POINT('',(1.41413274131,-1.685297774862,-2.839607805437));
#603=CARTESIAN_POINT('',(0.,0.,-2.839607805437));
#604=CARTESIAN_POINT('',(-1.41413274131,1.685297774862,-2.839607805437));
#605=CARTESIAN_POINT('',(-1.41413274131,1.685297774862,-3.97));
#606=CARTESIAN_POINT('',(0.,0.,0.1985));
#607=CARTESIAN_POINT('',(0.,0.,-2.839607805437));
#608=CARTESIAN_POINT('',(0.,0.,0.1985));
#609=CARTESIAN_POINT('',(0.,0.,-0.7999999999999));
#610=CARTESIAN_POINT('',(1.92836282906,-2.298133329357,-0.8));
#611=CARTESIAN_POINT('',(-1.928362829059,2.298133329357,-0.7999999999999));
#612=CARTESIAN_POINT('',(3.34249557037,-3.983431104219,-2.839607805437));
#613=CARTESIAN_POINT('',(-3.34249557037,3.983431104219,-2.839607805437));
#614=CARTESIAN_POINT('',(0.,0.,-2.839607805437));
#615=CARTESIAN_POINT('',(0.,0.,-0.7999999999999));
#616=CARTESIAN_POINT('',(0.,0.,-2.839607805437));
#617=CARTESIAN_POINT('',(-1.928362829059,2.298133329357,-0.8));
#618=CARTESIAN_POINT('',(1.92836282906,-2.298133329357,-0.8));
#619=CARTESIAN_POINT('',(0.,0.,0.1985));
#620=CARTESIAN_POINT('',(0.,0.,0.1985));
#621=MECHANICAL_DESIGN_GEOMETRIC_PRESENTATION_REPRESENTATION('',(#345,#346,
#347,#348,#349,#350,#351,#352,#353,#354,#355,#356,#357,#358),#622);
#622=(
GEOMETRIC_REPRESENTATION_CONTEXT(3)
GLOBAL_UNCERTAINTY_ASSIGNED_CONTEXT((#623))
GLOBAL_UNIT_ASSIGNED_CONTEXT((#629,#625,#624))
REPRESENTATION_CONTEXT('CP09T308N','TOP_LEVEL_ASSEMBLY_PART')
);
#623=UNCERTAINTY_MEASURE_WITH_UNIT(LENGTH_MEASURE(2.E-5),#629,
'DISTANCE_ACCURACY_VALUE','Maximum Tolerance applied to model');
#624=(
NAMED_UNIT(*)
SI_UNIT($,.STERADIAN.)
SOLID_ANGLE_UNIT()
);
#625=(
CONVERSION_BASED_UNIT('DEGREE',#627)
NAMED_UNIT(#626)
PLANE_ANGLE_UNIT()
);
#626=DIMENSIONAL_EXPONENTS(0.,0.,0.,0.,0.,0.,0.);
#627=PLANE_ANGLE_MEASURE_WITH_UNIT(PLANE_ANGLE_MEASURE(0.0174532925),#628);
#628=(
NAMED_UNIT(*)
PLANE_ANGLE_UNIT()
SI_UNIT($,.RADIAN.)
);
#629=(
LENGTH_UNIT()
NAMED_UNIT(*)
SI_UNIT(.MILLI.,.METRE.)
);
ENDSEC;
END-ISO-10303-21;
