ISO-10303-21;
HEADER;
FILE_DESCRIPTION((''),'2;1');
FILE_NAME('JPMT060204-E','2015-12-14T',('tlyi02'),('PTC Japan'),
'PRO/ENGINEER BY PARAMETRIC TECHNOLOGY CORPORATION, 2014310',
'PRO/ENGINEER BY PARAMETRIC TECHNOLOGY CORPORATION, 2014310','');
FILE_SCHEMA(('AUTOMOTIVE_DESIGN { 1 0 10303 214 1 1 1 1 }'));
ENDSEC;
DATA;
#16=DIRECTION('',(6.975647374418E-2,-9.975640502598E-1,0.E0));
#17=VECTOR('',#16,7.157435152300E0);
#18=CARTESIAN_POINT('',(-3.505623748274E0,3.542097410502E0,0.E0));
#19=LINE('',#18,#17);
#20=DRAUGHTING_PRE_DEFINED_CURVE_FONT('continuous');
#21=CURVE_STYLE('',#20,POSITIVE_LENGTH_MEASURE(2.E-2),#7);
#22=PRESENTATION_STYLE_ASSIGNMENT((#21));
#23=STYLED_ITEM('',(#22),#19);
#24=CARTESIAN_POINT('',(-3.106598128170E0,3.57E0,0.E0));
#25=DIRECTION('',(0.E0,0.E0,1.E0));
#26=DIRECTION('',(0.E0,1.E0,0.E0));
#27=AXIS2_PLACEMENT_3D('',#24,#25,#26);
#29=CURVE_STYLE('',#20,POSITIVE_LENGTH_MEASURE(2.E-2),#7);
#30=PRESENTATION_STYLE_ASSIGNMENT((#29));
#31=STYLED_ITEM('',(#30),#28);
#32=DIRECTION('',(-1.E0,0.E0,0.E0));
#33=VECTOR('',#32,5.713918819063E0);
#34=CARTESIAN_POINT('',(2.607320690893E0,3.97E0,0.E0));
#35=LINE('',#34,#33);
#36=CURVE_STYLE('',#20,POSITIVE_LENGTH_MEASURE(2.E-2),#7);
#37=PRESENTATION_STYLE_ASSIGNMENT((#36));
#38=STYLED_ITEM('',(#37),#35);
#39=CARTESIAN_POINT('',(2.607320690893E0,3.57E0,0.E0));
#40=DIRECTION('',(0.E0,0.E0,1.E0));
#41=DIRECTION('',(9.975640502598E-1,6.975647374417E-2,0.E0));
#42=AXIS2_PLACEMENT_3D('',#39,#40,#41);
#44=CURVE_STYLE('',#20,POSITIVE_LENGTH_MEASURE(2.E-2),#7);
#45=PRESENTATION_STYLE_ASSIGNMENT((#44));
#46=STYLED_ITEM('',(#45),#43);
#47=DIRECTION('',(-6.975647374418E-2,9.975640502598E-1,0.E0));
#48=VECTOR('',#47,7.157435152300E0);
#49=CARTESIAN_POINT('',(3.505623748274E0,-3.542097410502E0,0.E0));
#50=LINE('',#49,#48);
#51=CURVE_STYLE('',#20,POSITIVE_LENGTH_MEASURE(2.E-2),#7);
#52=PRESENTATION_STYLE_ASSIGNMENT((#51));
#53=STYLED_ITEM('',(#52),#50);
#54=CARTESIAN_POINT('',(3.106598128170E0,-3.57E0,0.E0));
#55=DIRECTION('',(0.E0,0.E0,1.E0));
#56=DIRECTION('',(0.E0,-1.E0,0.E0));
#57=AXIS2_PLACEMENT_3D('',#54,#55,#56);
#59=CURVE_STYLE('',#20,POSITIVE_LENGTH_MEASURE(2.E-2),#7);
#60=PRESENTATION_STYLE_ASSIGNMENT((#59));
#61=STYLED_ITEM('',(#60),#58);
#62=DIRECTION('',(1.E0,0.E0,0.E0));
#63=VECTOR('',#62,5.713918819063E0);
#64=CARTESIAN_POINT('',(-2.607320690893E0,-3.97E0,0.E0));
#65=LINE('',#64,#63);
#66=CURVE_STYLE('',#20,POSITIVE_LENGTH_MEASURE(2.E-2),#7);
#67=PRESENTATION_STYLE_ASSIGNMENT((#66));
#68=STYLED_ITEM('',(#67),#65);
#69=CARTESIAN_POINT('',(-2.607320690893E0,-3.57E0,0.E0));
#70=DIRECTION('',(0.E0,0.E0,1.E0));
#71=DIRECTION('',(-9.975640502598E-1,-6.975647374417E-2,0.E0));
#72=AXIS2_PLACEMENT_3D('',#69,#70,#71);
#74=CURVE_STYLE('',#20,POSITIVE_LENGTH_MEASURE(2.E-2),#7);
#75=PRESENTATION_STYLE_ASSIGNMENT((#74));
#76=STYLED_ITEM('',(#75),#73);
#77=CARTESIAN_POINT('',(0.E0,0.E0,0.E0));
#78=DIRECTION('',(0.E0,0.E0,-1.E0));
#79=DIRECTION('',(6.975647374418E-2,-9.975640502598E-1,0.E0));
#80=AXIS2_PLACEMENT_3D('',#77,#78,#79);
#82=CURVE_STYLE('',#20,POSITIVE_LENGTH_MEASURE(2.E-2),#7);
#83=PRESENTATION_STYLE_ASSIGNMENT((#82));
#84=STYLED_ITEM('',(#83),#81);
#85=CARTESIAN_POINT('',(0.E0,0.E0,0.E0));
#86=DIRECTION('',(0.E0,0.E0,-1.E0));
#87=DIRECTION('',(-6.975647374418E-2,9.975640502598E-1,0.E0));
#88=AXIS2_PLACEMENT_3D('',#85,#86,#87);
#90=CURVE_STYLE('',#20,POSITIVE_LENGTH_MEASURE(2.E-2),#7);
#91=PRESENTATION_STYLE_ASSIGNMENT((#90));
#92=STYLED_ITEM('',(#91),#89);
#93=DIRECTION('',(1.903441942538E-1,1.331016267614E-2,-9.816271834477E-1));
#94=VECTOR('',#93,2.096337225667E0);
#95=CARTESIAN_POINT('',(-3.505623748274E0,3.542097410502E0,0.E0));
#96=LINE('',#95,#94);
#97=CURVE_STYLE('',#20,POSITIVE_LENGTH_MEASURE(2.E-2),#7);
#98=PRESENTATION_STYLE_ASSIGNMENT((#97));
#99=STYLED_ITEM('',(#98),#96);
#100=DIRECTION('',(-1.E0,0.E0,0.E0));
#101=VECTOR('',#100,5.588362699170E0);
#102=CARTESIAN_POINT('',(2.548921807037E0,3.507374864252E0,-2.38E0));
#103=LINE('',#102,#101);
#104=CURVE_STYLE('',#20,POSITIVE_LENGTH_MEASURE(2.E-2),#7);
#105=PRESENTATION_STYLE_ASSIGNMENT((#104));
#106=STYLED_ITEM('',(#105),#103);
#107=DIRECTION('',(6.975647374418E-2,-9.975640502598E-1,0.E0));
#108=VECTOR('',#107,7.031879032406E0);
#109=CARTESIAN_POINT('',(-3.039440892133E0,3.507374864252E0,-2.38E0));
#110=LINE('',#109,#108);
#111=CURVE_STYLE('',#20,POSITIVE_LENGTH_MEASURE(2.E-2),#7);
#112=PRESENTATION_STYLE_ASSIGNMENT((#111));
#113=STYLED_ITEM('',(#112),#110);
#114=DIRECTION('',(1.E0,0.E0,0.E0));
#115=VECTOR('',#114,5.588362699170E0);
#116=CARTESIAN_POINT('',(-2.548921807037E0,-3.507374864252E0,-2.38E0));
#117=LINE('',#116,#115);
#118=CURVE_STYLE('',#20,POSITIVE_LENGTH_MEASURE(2.E-2),#7);
#119=PRESENTATION_STYLE_ASSIGNMENT((#118));
#120=STYLED_ITEM('',(#119),#117);
#121=DIRECTION('',(-6.975647374418E-2,9.975640502598E-1,0.E0));
#122=VECTOR('',#121,7.031879032406E0);
#123=CARTESIAN_POINT('',(3.039440892133E0,-3.507374864252E0,-2.38E0));
#124=LINE('',#123,#122);
#125=CURVE_STYLE('',#20,POSITIVE_LENGTH_MEASURE(2.E-2),#7);
#126=PRESENTATION_STYLE_ASSIGNMENT((#125));
#127=STYLED_ITEM('',(#126),#124);
#128=CARTESIAN_POINT('',(0.E0,0.E0,-2.38E0));
#129=DIRECTION('',(0.E0,0.E0,-1.E0));
#130=DIRECTION('',(6.975647374418E-2,-9.975640502598E-1,0.E0));
#131=AXIS2_PLACEMENT_3D('',#128,#129,#130);
#133=CURVE_STYLE('',#20,POSITIVE_LENGTH_MEASURE(2.E-2),#7);
#134=PRESENTATION_STYLE_ASSIGNMENT((#133));
#135=STYLED_ITEM('',(#134),#132);
#136=CARTESIAN_POINT('',(0.E0,0.E0,-2.38E0));
#137=DIRECTION('',(0.E0,0.E0,-1.E0));
#138=DIRECTION('',(-6.975647374418E-2,9.975640502598E-1,0.E0));
#139=AXIS2_PLACEMENT_3D('',#136,#137,#138);
#141=CURVE_STYLE('',#20,POSITIVE_LENGTH_MEASURE(2.E-2),#7);
#142=PRESENTATION_STYLE_ASSIGNMENT((#141));
#143=STYLED_ITEM('',(#142),#140);
#144=DIRECTION('',(-1.751807729254E-1,-1.878583794832E-1,-9.664475806039E-1));
#145=VECTOR('',#144,3.333635471575E-1);
#146=CARTESIAN_POINT('',(2.607320690893E0,3.57E0,-2.057821606388E0));
#147=LINE('',#146,#145);
#148=CURVE_STYLE('',#20,POSITIVE_LENGTH_MEASURE(2.E-2),#7);
#149=PRESENTATION_STYLE_ASSIGNMENT((#148));
#150=STYLED_ITEM('',(#149),#147);
#151=DIRECTION('',(0.E0,-1.908089953765E-1,-9.816271834477E-1));
#152=VECTOR('',#151,2.096337225667E0);
#153=CARTESIAN_POINT('',(2.607320690893E0,3.97E0,0.E0));
#154=LINE('',#153,#152);
#155=CURVE_STYLE('',#20,POSITIVE_LENGTH_MEASURE(2.E-2),#7);
#156=PRESENTATION_STYLE_ASSIGNMENT((#155));
#157=STYLED_ITEM('',(#156),#154);
#158=DIRECTION('',(2.004640746511E-1,-1.869357738408E-1,-9.617011860411E-1));
#159=VECTOR('',#158,3.350088346445E-1);
#160=CARTESIAN_POINT('',(-3.106598128170E0,3.57E0,-2.057821606388E0));
#161=LINE('',#160,#159);
#162=CURVE_STYLE('',#20,POSITIVE_LENGTH_MEASURE(2.E-2),#7);
#163=PRESENTATION_STYLE_ASSIGNMENT((#162));
#164=STYLED_ITEM('',(#163),#161);
#165=DIRECTION('',(-1.903441942538E-1,-1.331016267614E-2,-9.816271834477E-1));
#166=VECTOR('',#165,2.096337225667E0);
#167=CARTESIAN_POINT('',(3.505623748274E0,-3.542097410502E0,0.E0));
#168=LINE('',#167,#166);
#169=CURVE_STYLE('',#20,POSITIVE_LENGTH_MEASURE(2.E-2),#7);
#170=PRESENTATION_STYLE_ASSIGNMENT((#169));
#171=STYLED_ITEM('',(#170),#168);
#172=DIRECTION('',(-2.004640746511E-1,1.869357738408E-1,-9.617011860411E-1));
#173=VECTOR('',#172,3.350088346445E-1);
#174=CARTESIAN_POINT('',(3.106598128170E0,-3.57E0,-2.057821606388E0));
#175=LINE('',#174,#173);
#176=CURVE_STYLE('',#20,POSITIVE_LENGTH_MEASURE(2.E-2),#7);
#177=PRESENTATION_STYLE_ASSIGNMENT((#176));
#178=STYLED_ITEM('',(#177),#175);
#179=DIRECTION('',(0.E0,1.908089953765E-1,-9.816271834477E-1));
#180=VECTOR('',#179,2.096337225667E0);
#181=CARTESIAN_POINT('',(3.106598128170E0,-3.97E0,0.E0));
#182=LINE('',#181,#180);
#183=CURVE_STYLE('',#20,POSITIVE_LENGTH_MEASURE(2.E-2),#7);
#184=PRESENTATION_STYLE_ASSIGNMENT((#183));
#185=STYLED_ITEM('',(#184),#182);
#186=DIRECTION('',(0.E0,1.908089953765E-1,-9.816271834477E-1));
#187=VECTOR('',#186,2.096337225667E0);
#188=CARTESIAN_POINT('',(-2.607320690893E0,-3.97E0,0.E0));
#189=LINE('',#188,#187);
#190=CURVE_STYLE('',#20,POSITIVE_LENGTH_MEASURE(2.E-2),#7);
#191=PRESENTATION_STYLE_ASSIGNMENT((#190));
#192=STYLED_ITEM('',(#191),#189);
#193=DIRECTION('',(1.751807729254E-1,1.878583794832E-1,-9.664475806039E-1));
#194=VECTOR('',#193,3.333635471575E-1);
#195=CARTESIAN_POINT('',(-2.607320690893E0,-3.57E0,-2.057821606388E0));
#196=LINE('',#195,#194);
#197=CURVE_STYLE('',#20,POSITIVE_LENGTH_MEASURE(2.E-2),#7);
#198=PRESENTATION_STYLE_ASSIGNMENT((#197));
#199=STYLED_ITEM('',(#198),#196);
#200=DIRECTION('',(1.903441942538E-1,1.331016267614E-2,-9.816271834477E-1));
#201=VECTOR('',#200,2.096337225667E0);
#202=CARTESIAN_POINT('',(-3.006346310997E0,-3.597902589498E0,0.E0));
#203=LINE('',#202,#201);
#204=CURVE_STYLE('',#20,POSITIVE_LENGTH_MEASURE(2.E-2),#7);
#205=PRESENTATION_STYLE_ASSIGNMENT((#204));
#206=STYLED_ITEM('',(#205),#203);
#207=DIRECTION('',(-1.903441942538E-1,-1.331016267614E-2,-9.816271834477E-1));
#208=VECTOR('',#207,2.096337225667E0);
#209=CARTESIAN_POINT('',(3.006346310997E0,3.597902589498E0,0.E0));
#210=LINE('',#209,#208);
#211=CURVE_STYLE('',#20,POSITIVE_LENGTH_MEASURE(2.E-2),#7);
#212=PRESENTATION_STYLE_ASSIGNMENT((#211));
#213=STYLED_ITEM('',(#212),#210);
#214=DIRECTION('',(0.E0,-1.908089953765E-1,-9.816271834477E-1));
#215=VECTOR('',#214,2.096337225667E0);
#216=CARTESIAN_POINT('',(-3.106598128170E0,3.97E0,0.E0));
#217=LINE('',#216,#215);
#218=CURVE_STYLE('',#20,POSITIVE_LENGTH_MEASURE(2.E-2),#7);
#219=PRESENTATION_STYLE_ASSIGNMENT((#218));
#220=STYLED_ITEM('',(#219),#217);
#221=CARTESIAN_POINT('',(0.E0,0.E0,-1.481328969318E0));
#222=DIRECTION('',(0.E0,0.E0,-1.E0));
#223=DIRECTION('',(6.975647374418E-2,-9.975640502598E-1,0.E0));
#224=AXIS2_PLACEMENT_3D('',#221,#222,#223);
#226=CURVE_STYLE('',#20,POSITIVE_LENGTH_MEASURE(2.E-2),#7);
#227=PRESENTATION_STYLE_ASSIGNMENT((#226));
#228=STYLED_ITEM('',(#227),#225);
#229=DIRECTION('',(0.E0,0.E0,-1.E0));
#230=VECTOR('',#229,8.986710306819E-1);
#231=CARTESIAN_POINT('',(-1.220738290523E-1,1.745737087955E0,
-1.481328969318E0));
#232=LINE('',#231,#230);
#233=CURVE_STYLE('',#20,POSITIVE_LENGTH_MEASURE(2.E-2),#7);
#234=PRESENTATION_STYLE_ASSIGNMENT((#233));
#235=STYLED_ITEM('',(#234),#232);
#236=CARTESIAN_POINT('',(0.E0,0.E0,-1.481328969318E0));
#237=DIRECTION('',(0.E0,0.E0,1.E0));
#238=DIRECTION('',(6.975647374418E-2,-9.975640502598E-1,0.E0));
#239=AXIS2_PLACEMENT_3D('',#236,#237,#238);
#241=CURVE_STYLE('',#20,POSITIVE_LENGTH_MEASURE(2.E-2),#7);
#242=PRESENTATION_STYLE_ASSIGNMENT((#241));
#243=STYLED_ITEM('',(#242),#240);
#244=DIRECTION('',(0.E0,0.E0,-1.E0));
#245=VECTOR('',#244,8.986710306819E-1);
#246=CARTESIAN_POINT('',(1.220738290523E-1,-1.745737087955E0,
-1.481328969318E0));
#247=LINE('',#246,#245);
#248=CURVE_STYLE('',#20,POSITIVE_LENGTH_MEASURE(2.E-2),#7);
#249=PRESENTATION_STYLE_ASSIGNMENT((#248));
#250=STYLED_ITEM('',(#249),#247);
#251=CARTESIAN_POINT('',(3.313432502848E-1,-4.738429238734E0,
-1.481328969318E0));
#252=DIRECTION('',(-9.975640502598E-1,-6.975647374418E-2,0.E0));
#253=DIRECTION('',(-6.065945879010E-2,8.674706754693E-1,4.937763231060E-1));
#254=AXIS2_PLACEMENT_3D('',#251,#252,#253);
#256=CURVE_STYLE('',#20,POSITIVE_LENGTH_MEASURE(2.E-2),#7);
#257=PRESENTATION_STYLE_ASSIGNMENT((#256));
#258=STYLED_ITEM('',(#257),#255);
#259=CARTESIAN_POINT('',(-3.313432502848E-1,4.738429238734E0,
-1.481328969318E0));
#260=DIRECTION('',(9.975640502598E-1,6.975647374418E-2,0.E0));
#261=DIRECTION('',(6.065945879010E-2,-8.674706754693E-1,4.937763231060E-1));
#262=AXIS2_PLACEMENT_3D('',#259,#260,#261);
#264=CURVE_STYLE('',#20,POSITIVE_LENGTH_MEASURE(2.E-2),#7);
#265=PRESENTATION_STYLE_ASSIGNMENT((#264));
#266=STYLED_ITEM('',(#265),#263);
#267=CARTESIAN_POINT('',(1.220738290523E-1,-1.745737087955E0,
-1.481328969318E0));
#268=CARTESIAN_POINT('',(-1.220738290523E-1,1.745737087955E0,
-1.481328969318E0));
#269=VERTEX_POINT('',#267);
#270=VERTEX_POINT('',#268);
#271=CARTESIAN_POINT('',(1.493648739145E-1,-2.136017212326E0,0.E0));
#272=CARTESIAN_POINT('',(-1.493648739145E-1,2.136017212326E0,0.E0));
#273=VERTEX_POINT('',#271);
#274=VERTEX_POINT('',#272);
#275=CARTESIAN_POINT('',(1.220738290523E-1,-1.745737087955E0,-2.38E0));
#276=CARTESIAN_POINT('',(-1.220738290523E-1,1.745737087955E0,-2.38E0));
#277=VERTEX_POINT('',#275);
#278=VERTEX_POINT('',#276);
#279=CARTESIAN_POINT('',(-3.505623748274E0,3.542097410502E0,0.E0));
#280=CARTESIAN_POINT('',(-3.006346310997E0,-3.597902589498E0,0.E0));
#281=VERTEX_POINT('',#279);
#282=VERTEX_POINT('',#280);
#283=CARTESIAN_POINT('',(-2.607320690893E0,-3.97E0,0.E0));
#284=VERTEX_POINT('',#283);
#285=CARTESIAN_POINT('',(3.106598128170E0,-3.97E0,0.E0));
#286=VERTEX_POINT('',#285);
#287=CARTESIAN_POINT('',(3.505623748274E0,-3.542097410502E0,0.E0));
#288=VERTEX_POINT('',#287);
#289=CARTESIAN_POINT('',(3.006346310997E0,3.597902589498E0,0.E0));
#290=VERTEX_POINT('',#289);
#291=CARTESIAN_POINT('',(2.607320690893E0,3.97E0,0.E0));
#292=VERTEX_POINT('',#291);
#293=CARTESIAN_POINT('',(-3.106598128170E0,3.97E0,0.E0));
#294=VERTEX_POINT('',#293);
#295=CARTESIAN_POINT('',(-3.106598128170E0,3.57E0,-2.057821606388E0));
#296=VERTEX_POINT('',#295);
#297=CARTESIAN_POINT('',(-2.607320690893E0,-3.57E0,-2.057821606388E0));
#298=VERTEX_POINT('',#297);
#299=CARTESIAN_POINT('',(3.106598128170E0,-3.57E0,-2.057821606388E0));
#300=VERTEX_POINT('',#299);
#301=CARTESIAN_POINT('',(2.607320690893E0,3.57E0,-2.057821606388E0));
#302=VERTEX_POINT('',#301);
#303=CARTESIAN_POINT('',(2.548921807037E0,3.507374864252E0,-2.38E0));
#304=CARTESIAN_POINT('',(-3.039440892133E0,3.507374864252E0,-2.38E0));
#305=VERTEX_POINT('',#303);
#306=VERTEX_POINT('',#304);
#307=CARTESIAN_POINT('',(3.039440892133E0,-3.507374864252E0,-2.38E0));
#308=VERTEX_POINT('',#307);
#309=CARTESIAN_POINT('',(-2.548921807037E0,-3.507374864252E0,-2.38E0));
#310=VERTEX_POINT('',#309);
#311=CARTESIAN_POINT('',(0.E0,0.E0,0.E0));
#312=DIRECTION('',(0.E0,0.E0,1.E0));
#313=DIRECTION('',(9.975640502598E-1,6.975647374418E-2,0.E0));
#314=AXIS2_PLACEMENT_3D('',#311,#312,#313);
#315=PLANE('',#314);
#317=ORIENTED_EDGE('',*,*,#316,.F.);
#319=ORIENTED_EDGE('',*,*,#318,.F.);
#321=ORIENTED_EDGE('',*,*,#320,.F.);
#323=ORIENTED_EDGE('',*,*,#322,.F.);
#325=ORIENTED_EDGE('',*,*,#324,.F.);
#327=ORIENTED_EDGE('',*,*,#326,.F.);
#329=ORIENTED_EDGE('',*,*,#328,.F.);
#331=ORIENTED_EDGE('',*,*,#330,.F.);
#332=EDGE_LOOP('',(#317,#319,#321,#323,#325,#327,#329,#331));
#333=FACE_OUTER_BOUND('',#332,.F.);
#335=ORIENTED_EDGE('',*,*,#334,.F.);
#337=ORIENTED_EDGE('',*,*,#336,.F.);
#338=EDGE_LOOP('',(#335,#337));
#339=FACE_BOUND('',#338,.F.);
#341=CARTESIAN_POINT('',(-3.583751333712E0,4.659373935292E0,0.E0));
#342=DIRECTION('',(-9.792359889652E-1,-6.847485084874E-2,-1.908089953765E-1));
#343=DIRECTION('',(6.975647374418E-2,-9.975640502598E-1,0.E0));
#344=AXIS2_PLACEMENT_3D('',#341,#342,#343);
#345=PLANE('',#344);
#347=ORIENTED_EDGE('',*,*,#346,.F.);
#349=ORIENTED_EDGE('',*,*,#348,.F.);
#351=ORIENTED_EDGE('',*,*,#350,.F.);
#352=ORIENTED_EDGE('',*,*,#316,.T.);
#354=ORIENTED_EDGE('',*,*,#353,.T.);
#356=ORIENTED_EDGE('',*,*,#355,.T.);
#357=EDGE_LOOP('',(#347,#349,#351,#352,#354,#356));
#358=FACE_OUTER_BOUND('',#357,.F.);
#360=CARTESIAN_POINT('',(0.E0,0.E0,-2.38E0));
#361=DIRECTION('',(0.E0,0.E0,1.E0));
#362=DIRECTION('',(9.975640502598E-1,6.975647374418E-2,0.E0));
#363=AXIS2_PLACEMENT_3D('',#360,#361,#362);
#364=PLANE('',#363);
#366=ORIENTED_EDGE('',*,*,#365,.T.);
#367=ORIENTED_EDGE('',*,*,#346,.T.);
#369=ORIENTED_EDGE('',*,*,#368,.T.);
#371=ORIENTED_EDGE('',*,*,#370,.T.);
#372=EDGE_LOOP('',(#366,#367,#369,#371));
#373=FACE_OUTER_BOUND('',#372,.F.);
#375=ORIENTED_EDGE('',*,*,#374,.T.);
#377=ORIENTED_EDGE('',*,*,#376,.T.);
#378=EDGE_LOOP('',(#375,#377));
#379=FACE_BOUND('',#378,.F.);
#381=CARTESIAN_POINT('',(3.727325491085E0,3.97E0,0.E0));
#382=DIRECTION('',(0.E0,9.816271834477E-1,-1.908089953765E-1));
#383=DIRECTION('',(-1.E0,0.E0,0.E0));
#384=AXIS2_PLACEMENT_3D('',#381,#382,#383);
#385=PLANE('',#384);
#386=ORIENTED_EDGE('',*,*,#365,.F.);
#388=ORIENTED_EDGE('',*,*,#387,.F.);
#390=ORIENTED_EDGE('',*,*,#389,.F.);
#391=ORIENTED_EDGE('',*,*,#320,.T.);
#393=ORIENTED_EDGE('',*,*,#392,.T.);
#394=ORIENTED_EDGE('',*,*,#348,.T.);
#395=EDGE_LOOP('',(#386,#388,#390,#391,#393,#394));
#396=FACE_OUTER_BOUND('',#395,.F.);
#398=CARTESIAN_POINT('',(3.583751333712E0,-4.659373935292E0,0.E0));
#399=DIRECTION('',(9.792359889652E-1,6.847485084874E-2,-1.908089953765E-1));
#400=DIRECTION('',(-6.975647374418E-2,9.975640502598E-1,0.E0));
#401=AXIS2_PLACEMENT_3D('',#398,#399,#400);
#402=PLANE('',#401);
#404=ORIENTED_EDGE('',*,*,#403,.F.);
#405=ORIENTED_EDGE('',*,*,#324,.T.);
#407=ORIENTED_EDGE('',*,*,#406,.T.);
#408=ORIENTED_EDGE('',*,*,#387,.T.);
#409=ORIENTED_EDGE('',*,*,#370,.F.);
#411=ORIENTED_EDGE('',*,*,#410,.F.);
#412=EDGE_LOOP('',(#404,#405,#407,#408,#409,#411));
#413=FACE_OUTER_BOUND('',#412,.F.);
#415=CARTESIAN_POINT('',(3.106598128170E0,-3.57E0,-1.008332587130E0));
#416=DIRECTION('',(0.E0,0.E0,1.E0));
#417=DIRECTION('',(9.975640502598E-1,6.975647374418E-2,0.E0));
#418=AXIS2_PLACEMENT_3D('',#415,#416,#417);
#419=CONICAL_SURFACE('',#418,2.04E-1,1.1E1);
#420=ORIENTED_EDGE('',*,*,#326,.T.);
#421=ORIENTED_EDGE('',*,*,#403,.T.);
#423=ORIENTED_EDGE('',*,*,#422,.F.);
#424=EDGE_LOOP('',(#420,#421,#423));
#425=FACE_OUTER_BOUND('',#424,.F.);
#427=CARTESIAN_POINT('',(-3.727325491085E0,-3.97E0,0.E0));
#428=DIRECTION('',(0.E0,-9.816271834477E-1,-1.908089953765E-1));
#429=DIRECTION('',(1.E0,0.E0,0.E0));
#430=AXIS2_PLACEMENT_3D('',#427,#428,#429);
#431=PLANE('',#430);
#433=ORIENTED_EDGE('',*,*,#432,.F.);
#434=ORIENTED_EDGE('',*,*,#328,.T.);
#435=ORIENTED_EDGE('',*,*,#422,.T.);
#436=ORIENTED_EDGE('',*,*,#410,.T.);
#437=ORIENTED_EDGE('',*,*,#368,.F.);
#438=ORIENTED_EDGE('',*,*,#355,.F.);
#439=EDGE_LOOP('',(#433,#434,#435,#436,#437,#438));
#440=FACE_OUTER_BOUND('',#439,.F.);
#442=CARTESIAN_POINT('',(-2.607320690893E0,-3.57E0,-1.008332587130E0));
#443=DIRECTION('',(0.E0,0.E0,1.E0));
#444=DIRECTION('',(9.975640502598E-1,6.975647374418E-2,0.E0));
#445=AXIS2_PLACEMENT_3D('',#442,#443,#444);
#446=CONICAL_SURFACE('',#445,2.04E-1,1.1E1);
#447=ORIENTED_EDGE('',*,*,#330,.T.);
#448=ORIENTED_EDGE('',*,*,#432,.T.);
#449=ORIENTED_EDGE('',*,*,#353,.F.);
#450=EDGE_LOOP('',(#447,#448,#449));
#451=FACE_OUTER_BOUND('',#450,.F.);
#453=CARTESIAN_POINT('',(2.607320690893E0,3.57E0,-1.008332587130E0));
#454=DIRECTION('',(0.E0,0.E0,1.E0));
#455=DIRECTION('',(9.975640502598E-1,6.975647374418E-2,0.E0));
#456=AXIS2_PLACEMENT_3D('',#453,#454,#455);
#457=CONICAL_SURFACE('',#456,2.04E-1,1.1E1);
#458=ORIENTED_EDGE('',*,*,#322,.T.);
#459=ORIENTED_EDGE('',*,*,#389,.T.);
#460=ORIENTED_EDGE('',*,*,#406,.F.);
#461=EDGE_LOOP('',(#458,#459,#460));
#462=FACE_OUTER_BOUND('',#461,.F.);
#464=CARTESIAN_POINT('',(-3.106598128170E0,3.57E0,-1.008332587130E0));
#465=DIRECTION('',(0.E0,0.E0,1.E0));
#466=DIRECTION('',(9.975640502598E-1,6.975647374418E-2,0.E0));
#467=AXIS2_PLACEMENT_3D('',#464,#465,#466);
#468=CONICAL_SURFACE('',#467,2.04E-1,1.1E1);
#469=ORIENTED_EDGE('',*,*,#318,.T.);
#470=ORIENTED_EDGE('',*,*,#350,.T.);
#471=ORIENTED_EDGE('',*,*,#392,.F.);
#472=EDGE_LOOP('',(#469,#470,#471));
#473=FACE_OUTER_BOUND('',#472,.F.);
#475=CARTESIAN_POINT('',(0.E0,0.E0,5.915E-1));
#476=DIRECTION('',(0.E0,0.E0,-1.E0));
#477=DIRECTION('',(6.975647374418E-2,-9.975640502598E-1,0.E0));
#478=AXIS2_PLACEMENT_3D('',#475,#476,#477);
#479=CYLINDRICAL_SURFACE('',#478,1.75E0);
#480=ORIENTED_EDGE('',*,*,#374,.F.);
#482=ORIENTED_EDGE('',*,*,#481,.F.);
#484=ORIENTED_EDGE('',*,*,#483,.T.);
#486=ORIENTED_EDGE('',*,*,#485,.T.);
#487=EDGE_LOOP('',(#480,#482,#484,#486));
#488=FACE_OUTER_BOUND('',#487,.F.);
#490=CARTESIAN_POINT('',(0.E0,0.E0,5.915E-1));
#491=DIRECTION('',(0.E0,0.E0,-1.E0));
#492=DIRECTION('',(6.975647374418E-2,-9.975640502598E-1,0.E0));
#493=AXIS2_PLACEMENT_3D('',#490,#491,#492);
#494=CYLINDRICAL_SURFACE('',#493,1.75E0);
#495=ORIENTED_EDGE('',*,*,#376,.F.);
#496=ORIENTED_EDGE('',*,*,#485,.F.);
#498=ORIENTED_EDGE('',*,*,#497,.F.);
#499=ORIENTED_EDGE('',*,*,#481,.T.);
#500=EDGE_LOOP('',(#495,#496,#498,#499));
#501=FACE_OUTER_BOUND('',#500,.F.);
#503=CARTESIAN_POINT('',(0.E0,0.E0,-1.481328969318E0));
#504=DIRECTION('',(0.E0,0.E0,-1.E0));
#505=DIRECTION('',(6.975647374418E-2,-9.975640502598E-1,0.E0));
#506=AXIS2_PLACEMENT_3D('',#503,#504,#505);
#507=TOROIDAL_SURFACE('',#506,4.75E0,3.E0);
#508=ORIENTED_EDGE('',*,*,#336,.T.);
#510=ORIENTED_EDGE('',*,*,#509,.T.);
#511=ORIENTED_EDGE('',*,*,#497,.T.);
#513=ORIENTED_EDGE('',*,*,#512,.F.);
#514=EDGE_LOOP('',(#508,#510,#511,#513));
#515=FACE_OUTER_BOUND('',#514,.F.);
#517=CARTESIAN_POINT('',(0.E0,0.E0,-1.481328969318E0));
#518=DIRECTION('',(0.E0,0.E0,-1.E0));
#519=DIRECTION('',(6.975647374418E-2,-9.975640502598E-1,0.E0));
#520=AXIS2_PLACEMENT_3D('',#517,#518,#519);
#521=TOROIDAL_SURFACE('',#520,4.75E0,3.E0);
#522=ORIENTED_EDGE('',*,*,#334,.T.);
#523=ORIENTED_EDGE('',*,*,#512,.T.);
#524=ORIENTED_EDGE('',*,*,#483,.F.);
#525=ORIENTED_EDGE('',*,*,#509,.F.);
#526=EDGE_LOOP('',(#522,#523,#524,#525));
#527=FACE_OUTER_BOUND('',#526,.F.);
#529=CLOSED_SHELL('',(#340,#359,#380,#397,#414,#426,#441,#452,#463,#474,#489,
#502,#516,#528));
#530=MANIFOLD_SOLID_BREP('',#529);
#531=FILL_AREA_STYLE_COLOUR('',#7);
#532=FILL_AREA_STYLE('',(#531));
#533=SURFACE_STYLE_FILL_AREA(#532);
#534=SURFACE_SIDE_STYLE('',(#533));
#535=SURFACE_STYLE_USAGE(.BOTH.,#534);
#536=PRESENTATION_STYLE_ASSIGNMENT((#535));
#15=STYLED_ITEM('',(#536),#530);
#537=CARTESIAN_POINT('',(0.E0,0.E0,0.E0));
#538=DIRECTION('',(0.E0,0.E0,1.E0));
#539=DIRECTION('',(1.E0,0.E0,0.E0));
#540=AXIS2_PLACEMENT_3D('MCS',#537,#538,#539);
#541=CURVE_STYLE('',#20,POSITIVE_LENGTH_MEASURE(2.E-2),#13);
#542=PRESENTATION_STYLE_ASSIGNMENT((#541));
#543=STYLED_ITEM('',(#542),#540);
#544=PRESENTATION_LAYER_ASSIGNMENT('ALL_CSYS','',(#540));
#545=PRESENTATION_LAYER_ASSIGNMENT('ALL_FEATURES','',(#540));
#548=PLANE_ANGLE_MEASURE_WITH_UNIT(PLANE_ANGLE_MEASURE(1.745329251994E-2),#547);
#549=(CONVERSION_BASED_UNIT('DEGREE',#548)NAMED_UNIT(*)PLANE_ANGLE_UNIT());
#551=UNCERTAINTY_MEASURE_WITH_UNIT(LENGTH_MEASURE(1.E-3),#546,
'distance_accuracy_value',
'Maximum model space distance between geometric entities at asserted connectivities');
#555=CARTESIAN_POINT('',(0.E0,0.E0,0.E0));
#556=DIRECTION('',(0.E0,0.E0,1.E0));
#557=DIRECTION('',(1.E0,0.E0,0.E0));
#560=SHAPE_REPRESENTATION_RELATIONSHIP('','',#559,#553);
#561=CONSTRUCTIVE_GEOMETRY_REPRESENTATION_RELATIONSHIP('','',#559,#554);
#562=MECHANICAL_DESIGN_GEOMETRIC_PRESENTATION_REPRESENTATION('',(#23,#31,#38,
#46,#53,#61,#68,#76,#84,#92,#99,#106,#113,#120,#127,#135,#143,#150,#157,#164,
#171,#178,#185,#192,#199,#206,#213,#220,#228,#235,#243,#250,#258,#266,#15,#543),
#552);
#563=APPLICATION_CONTEXT('automotive_design');
#564=APPLICATION_PROTOCOL_DEFINITION('international standard',
'automotive_design',2001,#563);
#565=PRODUCT_DEFINITION_CONTEXT('part definition',#563,'design');
#566=PRODUCT_CONTEXT('',#563,'mechanical');
#567=PRODUCT('JPMT060204-E','JPMT060204-E','NOT SPECIFIED',(#566));
#568=PRODUCT_DEFINITION_FORMATION('24','LAST_VERSION',#567);
#576=DERIVED_UNIT_ELEMENT(#575,2.E0);
#577=DERIVED_UNIT((#576));
#578=MEASURE_REPRESENTATION_ITEM('surface area measure',AREA_MEASURE(
1.599369347953E2),#577);
#583=DERIVED_UNIT_ELEMENT(#582,3.E0);
#584=DERIVED_UNIT((#583));
#585=MEASURE_REPRESENTATION_ITEM('volume measure',VOLUME_MEASURE(
8.267876153582E1),#584);
#589=CARTESIAN_POINT('centre point',(-1.527923203488E-12,2.186032856221E-11,
-1.141385180719E0));
#594=DERIVED_UNIT_ELEMENT(#593,2.E0);
#595=DERIVED_UNIT((#594));
#596=MEASURE_REPRESENTATION_ITEM('surface area measure',AREA_MEASURE(
1.599369347953E2),#595);
#601=DERIVED_UNIT_ELEMENT(#600,3.E0);
#602=DERIVED_UNIT((#601));
#603=MEASURE_REPRESENTATION_ITEM('volume measure',VOLUME_MEASURE(
8.267876153582E1),#602);
#607=CARTESIAN_POINT('centre point',(-1.527923203488E-12,2.186032856221E-11,
-1.141385180719E0));
#612=PRODUCT_RELATED_PRODUCT_CATEGORY('part','',(#567));
#614=GENERAL_PROPERTY('','DESCRIPTION','user defined attribute');
#615=GENERAL_PROPERTY_ASSOCIATION('user defined attribute','',#614,#613);
#616=DESCRIPTIVE_REPRESENTATION_ITEM('DESCRIPTION','');
#620=GENERAL_PROPERTY('','MODELED_BY','user defined attribute');
#621=GENERAL_PROPERTY_ASSOCIATION('user defined attribute','',#620,#619);
#622=DESCRIPTIVE_REPRESENTATION_ITEM('MODELED_BY','');
#1=DRAUGHTING_PRE_DEFINED_COLOUR('green');
#2=COLOUR_RGB('',3.01961E-1,3.01961E-1,3.01961E-1);
#3=COLOUR_RGB('',3.92157E-1,3.92157E-1,3.92157E-1);
#4=COLOUR_RGB('',5.01961E-1,5.01961E-1,5.01961E-1);
#5=COLOUR_RGB('',7.05882E-1,7.05882E-1,7.05882E-1);
#6=COLOUR_RGB('',7.84314E-1,5.29412E-1,7.84314E-1);
#7=COLOUR_RGB('',8.E-1,8.E-1,8.E-1);
#8=COLOUR_RGB('',8.784E-1,9.49E-1,1.E0);
#9=COLOUR_RGB('',9.80392E-1,9.80392E-1,9.80392E-1);
#10=COLOUR_RGB('',1.E0,6.66667E-1,0.E0);
#11=COLOUR_RGB('',1.E0,7.63913E-1,1.92109E-1);
#12=COLOUR_RGB('',1.E0,8.39216E-1,8.90196E-1);
#13=DRAUGHTING_PRE_DEFINED_COLOUR('yellow');
#14=COLOUR_RGB('',1.E0,1.E0,9.41176E-1);
#28=CIRCLE('',#27,4.E-1);
#43=CIRCLE('',#42,4.E-1);
#58=CIRCLE('',#57,4.E-1);
#73=CIRCLE('',#72,4.E-1);
#81=CIRCLE('',#80,2.141233148658E0);
#89=CIRCLE('',#88,2.141233148658E0);
#132=CIRCLE('',#131,1.75E0);
#140=CIRCLE('',#139,1.75E0);
#225=CIRCLE('',#224,1.75E0);
#240=CIRCLE('',#239,1.75E0);
#255=CIRCLE('',#254,3.E0);
#263=CIRCLE('',#262,3.E0);
#316=EDGE_CURVE('',#281,#282,#19,.T.);
#318=EDGE_CURVE('',#294,#281,#28,.T.);
#320=EDGE_CURVE('',#292,#294,#35,.T.);
#322=EDGE_CURVE('',#290,#292,#43,.T.);
#324=EDGE_CURVE('',#288,#290,#50,.T.);
#326=EDGE_CURVE('',#286,#288,#58,.T.);
#328=EDGE_CURVE('',#284,#286,#65,.T.);
#330=EDGE_CURVE('',#282,#284,#73,.T.);
#334=EDGE_CURVE('',#273,#274,#81,.T.);
#336=EDGE_CURVE('',#274,#273,#89,.T.);
#340=ADVANCED_FACE('',(#333,#339),#315,.T.);
#346=EDGE_CURVE('',#306,#310,#110,.T.);
#348=EDGE_CURVE('',#296,#306,#161,.T.);
#350=EDGE_CURVE('',#281,#296,#96,.T.);
#353=EDGE_CURVE('',#282,#298,#203,.T.);
#355=EDGE_CURVE('',#298,#310,#196,.T.);
#359=ADVANCED_FACE('',(#358),#345,.T.);
#365=EDGE_CURVE('',#305,#306,#103,.T.);
#368=EDGE_CURVE('',#310,#308,#117,.T.);
#370=EDGE_CURVE('',#308,#305,#124,.T.);
#374=EDGE_CURVE('',#277,#278,#132,.T.);
#376=EDGE_CURVE('',#278,#277,#140,.T.);
#380=ADVANCED_FACE('',(#373,#379),#364,.F.);
#387=EDGE_CURVE('',#302,#305,#147,.T.);
#389=EDGE_CURVE('',#292,#302,#154,.T.);
#392=EDGE_CURVE('',#294,#296,#217,.T.);
#397=ADVANCED_FACE('',(#396),#385,.T.);
#403=EDGE_CURVE('',#288,#300,#168,.T.);
#406=EDGE_CURVE('',#290,#302,#210,.T.);
#410=EDGE_CURVE('',#300,#308,#175,.T.);
#414=ADVANCED_FACE('',(#413),#402,.T.);
#422=EDGE_CURVE('',#286,#300,#182,.T.);
#426=ADVANCED_FACE('',(#425),#419,.T.);
#432=EDGE_CURVE('',#284,#298,#189,.T.);
#441=ADVANCED_FACE('',(#440),#431,.T.);
#452=ADVANCED_FACE('',(#451),#446,.T.);
#463=ADVANCED_FACE('',(#462),#457,.T.);
#474=ADVANCED_FACE('',(#473),#468,.T.);
#481=EDGE_CURVE('',#269,#277,#247,.T.);
#483=EDGE_CURVE('',#269,#270,#225,.T.);
#485=EDGE_CURVE('',#270,#278,#232,.T.);
#489=ADVANCED_FACE('',(#488),#479,.F.);
#497=EDGE_CURVE('',#269,#270,#240,.T.);
#502=ADVANCED_FACE('',(#501),#494,.F.);
#509=EDGE_CURVE('',#273,#269,#255,.T.);
#512=EDGE_CURVE('',#274,#270,#263,.T.);
#516=ADVANCED_FACE('',(#515),#507,.T.);
#528=ADVANCED_FACE('',(#527),#521,.T.);
#546=(LENGTH_UNIT()NAMED_UNIT(*)SI_UNIT(.MILLI.,.METRE.));
#547=(NAMED_UNIT(*)PLANE_ANGLE_UNIT()SI_UNIT($,.RADIAN.));
#550=(NAMED_UNIT(*)SI_UNIT($,.STERADIAN.)SOLID_ANGLE_UNIT());
#552=(GEOMETRIC_REPRESENTATION_CONTEXT(3)GLOBAL_UNCERTAINTY_ASSIGNED_CONTEXT((
#551))GLOBAL_UNIT_ASSIGNED_CONTEXT((#546,#549,#550))REPRESENTATION_CONTEXT
('ID1','3'));
#553=ADVANCED_BREP_SHAPE_REPRESENTATION('',(#530),#552);
#554=CONSTRUCTIVE_GEOMETRY_REPRESENTATION('supplemental geometry',(#540),#552);
#558=AXIS2_PLACEMENT_3D('',#555,#556,#557);
#559=SHAPE_REPRESENTATION('',(#558),#552);
#569=PRODUCT_DEFINITION('part definition','',#568,#565);
#570=PRODUCT_DEFINITION_SHAPE('','SHAPE FOR JPMT060204-E.',#569);
#571=SHAPE_ASPECT('','solid data associated with JPMT060204-E',#570,.F.);
#572=PROPERTY_DEFINITION('',
'shape for solid data with which properties are associated',#571);
#573=SHAPE_REPRESENTATION('',(#530),#552);
#574=SHAPE_DEFINITION_REPRESENTATION(#572,#573);
#575=(LENGTH_UNIT()NAMED_UNIT(*)SI_UNIT(.MILLI.,.METRE.));
#579=PROPERTY_DEFINITION('geometric validation property','area of JPMT060204-E',
#571);
#580=REPRESENTATION('surface area',(#578),#552);
#581=PROPERTY_DEFINITION_REPRESENTATION(#579,#580);
#582=(LENGTH_UNIT()NAMED_UNIT(*)SI_UNIT(.MILLI.,.METRE.));
#586=PROPERTY_DEFINITION('geometric validation property',
'volume of JPMT060204-E',#571);
#587=REPRESENTATION('volume',(#585),#552);
#588=PROPERTY_DEFINITION_REPRESENTATION(#586,#587);
#590=PROPERTY_DEFINITION('geometric validation property',
'centroid of JPMT060204-E',#571);
#591=REPRESENTATION('centroid',(#589),#552);
#592=PROPERTY_DEFINITION_REPRESENTATION(#590,#591);
#593=(LENGTH_UNIT()NAMED_UNIT(*)SI_UNIT(.MILLI.,.METRE.));
#597=PROPERTY_DEFINITION('geometric validation property','area of JPMT060204-E',
#570);
#598=REPRESENTATION('surface area',(#596),#552);
#599=PROPERTY_DEFINITION_REPRESENTATION(#597,#598);
#600=(LENGTH_UNIT()NAMED_UNIT(*)SI_UNIT(.MILLI.,.METRE.));
#604=PROPERTY_DEFINITION('geometric validation property',
'volume of JPMT060204-E',#570);
#605=REPRESENTATION('volume',(#603),#552);
#606=PROPERTY_DEFINITION_REPRESENTATION(#604,#605);
#608=PROPERTY_DEFINITION('geometric validation property',
'centroid of JPMT060204-E',#570);
#609=REPRESENTATION('centroid',(#607),#552);
#610=PROPERTY_DEFINITION_REPRESENTATION(#608,#609);
#611=SHAPE_DEFINITION_REPRESENTATION(#570,#559);
#613=PROPERTY_DEFINITION('DESCRIPTION','user defined attribute',#569);
#617=REPRESENTATION('',(#616),#552);
#618=PROPERTY_DEFINITION_REPRESENTATION(#613,#617);
#619=PROPERTY_DEFINITION('MODELED_BY','user defined attribute',#569);
#623=REPRESENTATION('',(#622),#552);
#624=PROPERTY_DEFINITION_REPRESENTATION(#619,#623);
ENDSEC;
END-ISO-10303-21;
