ISO-10303-21;
HEADER;
/* Generated by software containing ST-Developer
 * from STEP Tools, Inc. (www.steptools.com) 
 */
/* OPTION: using custom schema-name function */

FILE_DESCRIPTION(
/* description */ (''),
/* implementation_level */ '2;1');

FILE_NAME(
/* name */ 'TN160412N.stp',
/* time_stamp */ '2021-11-11T11:52:00+09:00',
/* author */ (''),
/* organization */ (''),
/* preprocessor_version */ 'ST-DEVELOPER v16',
/* originating_system */ 'SIEMENS PLM Software NX 10.0',
/* authorisation */ '');

FILE_SCHEMA (('AUTOMOTIVE_DESIGN { 1 0 10303 214 3 1 1 1 }'));
ENDSEC;

DATA;
#10=CONSTRUCTIVE_GEOMETRY_REPRESENTATION_RELATIONSHIP(
'supplemental geometry','',#26,#11);
#11=CONSTRUCTIVE_GEOMETRY_REPRESENTATION('supplemental geometry',(#276,
#277,#278),#433);
#12=GEOMETRICALLY_BOUNDED_WIREFRAME_SHAPE_REPRESENTATION(
'TN160412N-None',(#27),#433);
#13=SHAPE_REPRESENTATION_RELATIONSHIP('None',
'relationship between TN160412N-None and TN160412N-None',#26,#15);
#14=SHAPE_REPRESENTATION_RELATIONSHIP('None',
'relationship between TN160412N-None and TN160412N-None',#26,#12);
#15=ADVANCED_BREP_SHAPE_REPRESENTATION('TN160412N-None',(#33),#433);
#16=SHAPE_DEFINITION_REPRESENTATION(#17,#26);
#17=PRODUCT_DEFINITION_SHAPE('','',#18);
#18=PRODUCT_DEFINITION('part definition','',#20,#19);
#19=PRODUCT_DEFINITION_CONTEXT('part definition',#25,'design');
#20=PRODUCT_DEFINITION_FORMATION_WITH_SPECIFIED_SOURCE(' ',' ',#22,
 .NOT_KNOWN.);
#21=PRODUCT_RELATED_PRODUCT_CATEGORY('part','',(#22));
#22=PRODUCT('TN160412L','TN160412L','NOT SPECIFIED',(#23));
#23=PRODUCT_CONTEXT('',#25,'mechanical');
#24=APPLICATION_PROTOCOL_DEFINITION('international standard',
'automotive_design',2010,#25);
#25=APPLICATION_CONTEXT(
'core data for automotive mechanical design processes');
#26=SHAPE_REPRESENTATION('TN160412N-None',(#272),#433);
#27=GEOMETRIC_CURVE_SET('None',(#371,#372,#200,#201,#202,#203,#204,#205));
#28=SURFACE_STYLE_USAGE(.BOTH.,#29);
#29=SURFACE_SIDE_STYLE('',(#30));
#30=SURFACE_STYLE_FILL_AREA(#31);
#31=FILL_AREA_STYLE('',(#32));
#32=FILL_AREA_STYLE_COLOUR('',#168);
#33=MANIFOLD_SOLID_BREP('',#34);
#34=CLOSED_SHELL('',(#48,#49,#50,#51,#52,#53,#54,#55,#56,#57));
#35=CYLINDRICAL_SURFACE('',#286,1.2);
#36=CYLINDRICAL_SURFACE('',#293,1.2);
#37=CYLINDRICAL_SURFACE('',#295,1.2);
#38=CYLINDRICAL_SURFACE('',#297,1.905);
#39=CYLINDRICAL_SURFACE('',#298,1.905);
#40=FACE_OUTER_BOUND('',#69,.T.);
#41=FACE_OUTER_BOUND('',#72,.T.);
#42=FACE_OUTER_BOUND('',#73,.T.);
#43=FACE_OUTER_BOUND('',#74,.T.);
#44=FACE_OUTER_BOUND('',#75,.T.);
#45=FACE_OUTER_BOUND('',#76,.T.);
#46=FACE_OUTER_BOUND('',#77,.T.);
#47=FACE_OUTER_BOUND('',#78,.T.);
#48=ADVANCED_FACE('',(#63,#64),#58,.T.);
#49=ADVANCED_FACE('',(#40),#35,.T.);
#50=ADVANCED_FACE('',(#65,#66),#59,.F.);
#51=ADVANCED_FACE('',(#41),#60,.T.);
#52=ADVANCED_FACE('',(#42),#36,.T.);
#53=ADVANCED_FACE('',(#43),#61,.T.);
#54=ADVANCED_FACE('',(#44),#37,.T.);
#55=ADVANCED_FACE('',(#45),#62,.T.);
#56=ADVANCED_FACE('',(#46),#38,.F.);
#57=ADVANCED_FACE('',(#47),#39,.F.);
#58=PLANE('',#284);
#59=PLANE('',#291);
#60=PLANE('',#292);
#61=PLANE('',#294);
#62=PLANE('',#296);
#63=FACE_BOUND('',#67,.T.);
#64=FACE_BOUND('',#68,.T.);
#65=FACE_BOUND('',#70,.T.);
#66=FACE_BOUND('',#71,.T.);
#67=EDGE_LOOP('',(#79,#80,#81,#82,#83,#84));
#68=EDGE_LOOP('',(#85,#86));
#69=EDGE_LOOP('',(#87,#88,#89,#90));
#70=EDGE_LOOP('',(#91,#92,#93,#94,#95,#96));
#71=EDGE_LOOP('',(#97,#98));
#72=EDGE_LOOP('',(#99,#100,#101,#102));
#73=EDGE_LOOP('',(#103,#104,#105,#106));
#74=EDGE_LOOP('',(#107,#108,#109,#110));
#75=EDGE_LOOP('',(#111,#112,#113,#114));
#76=EDGE_LOOP('',(#115,#116,#117,#118));
#77=EDGE_LOOP('',(#119,#120,#121,#122));
#78=EDGE_LOOP('',(#123,#124,#125,#126));
#79=ORIENTED_EDGE('',*,*,#143,.F.);
#80=ORIENTED_EDGE('',*,*,#144,.F.);
#81=ORIENTED_EDGE('',*,*,#145,.F.);
#82=ORIENTED_EDGE('',*,*,#146,.F.);
#83=ORIENTED_EDGE('',*,*,#147,.F.);
#84=ORIENTED_EDGE('',*,*,#148,.F.);
#85=ORIENTED_EDGE('',*,*,#149,.F.);
#86=ORIENTED_EDGE('',*,*,#150,.F.);
#87=ORIENTED_EDGE('',*,*,#151,.F.);
#88=ORIENTED_EDGE('',*,*,#148,.T.);
#89=ORIENTED_EDGE('',*,*,#152,.F.);
#90=ORIENTED_EDGE('',*,*,#153,.T.);
#91=ORIENTED_EDGE('',*,*,#154,.F.);
#92=ORIENTED_EDGE('',*,*,#155,.F.);
#93=ORIENTED_EDGE('',*,*,#156,.T.);
#94=ORIENTED_EDGE('',*,*,#157,.F.);
#95=ORIENTED_EDGE('',*,*,#158,.F.);
#96=ORIENTED_EDGE('',*,*,#153,.F.);
#97=ORIENTED_EDGE('',*,*,#159,.F.);
#98=ORIENTED_EDGE('',*,*,#160,.F.);
#99=ORIENTED_EDGE('',*,*,#158,.T.);
#100=ORIENTED_EDGE('',*,*,#161,.T.);
#101=ORIENTED_EDGE('',*,*,#143,.T.);
#102=ORIENTED_EDGE('',*,*,#151,.T.);
#103=ORIENTED_EDGE('',*,*,#162,.F.);
#104=ORIENTED_EDGE('',*,*,#144,.T.);
#105=ORIENTED_EDGE('',*,*,#161,.F.);
#106=ORIENTED_EDGE('',*,*,#157,.T.);
#107=ORIENTED_EDGE('',*,*,#145,.T.);
#108=ORIENTED_EDGE('',*,*,#162,.T.);
#109=ORIENTED_EDGE('',*,*,#156,.F.);
#110=ORIENTED_EDGE('',*,*,#163,.T.);
#111=ORIENTED_EDGE('',*,*,#164,.F.);
#112=ORIENTED_EDGE('',*,*,#146,.T.);
#113=ORIENTED_EDGE('',*,*,#163,.F.);
#114=ORIENTED_EDGE('',*,*,#155,.T.);
#115=ORIENTED_EDGE('',*,*,#147,.T.);
#116=ORIENTED_EDGE('',*,*,#164,.T.);
#117=ORIENTED_EDGE('',*,*,#154,.T.);
#118=ORIENTED_EDGE('',*,*,#152,.T.);
#119=ORIENTED_EDGE('',*,*,#165,.T.);
#120=ORIENTED_EDGE('',*,*,#150,.T.);
#121=ORIENTED_EDGE('',*,*,#166,.F.);
#122=ORIENTED_EDGE('',*,*,#160,.T.);
#123=ORIENTED_EDGE('',*,*,#166,.T.);
#124=ORIENTED_EDGE('',*,*,#149,.T.);
#125=ORIENTED_EDGE('',*,*,#165,.F.);
#126=ORIENTED_EDGE('',*,*,#159,.T.);
#127=VERTEX_POINT('',#383);
#128=VERTEX_POINT('',#384);
#129=VERTEX_POINT('',#386);
#130=VERTEX_POINT('',#388);
#131=VERTEX_POINT('',#390);
#132=VERTEX_POINT('',#392);
#133=VERTEX_POINT('',#395);
#134=VERTEX_POINT('',#396);
#135=VERTEX_POINT('',#400);
#136=VERTEX_POINT('',#402);
#137=VERTEX_POINT('',#406);
#138=VERTEX_POINT('',#408);
#139=VERTEX_POINT('',#410);
#140=VERTEX_POINT('',#412);
#141=VERTEX_POINT('',#415);
#142=VERTEX_POINT('',#416);
#143=EDGE_CURVE('',#127,#128,#209,.T.);
#144=EDGE_CURVE('',#129,#127,#172,.T.);
#145=EDGE_CURVE('',#130,#129,#210,.T.);
#146=EDGE_CURVE('',#131,#130,#173,.T.);
#147=EDGE_CURVE('',#132,#131,#211,.T.);
#148=EDGE_CURVE('',#128,#132,#174,.T.);
#149=EDGE_CURVE('',#133,#134,#175,.T.);
#150=EDGE_CURVE('',#134,#133,#176,.T.);
#151=EDGE_CURVE('',#128,#135,#212,.T.);
#152=EDGE_CURVE('',#136,#132,#213,.T.);
#153=EDGE_CURVE('',#136,#135,#177,.T.);
#154=EDGE_CURVE('',#137,#136,#214,.T.);
#155=EDGE_CURVE('',#138,#137,#178,.T.);
#156=EDGE_CURVE('',#138,#139,#215,.T.);
#157=EDGE_CURVE('',#140,#139,#179,.T.);
#158=EDGE_CURVE('',#135,#140,#216,.T.);
#159=EDGE_CURVE('',#141,#142,#180,.T.);
#160=EDGE_CURVE('',#142,#141,#181,.T.);
#161=EDGE_CURVE('',#140,#127,#217,.T.);
#162=EDGE_CURVE('',#129,#139,#218,.T.);
#163=EDGE_CURVE('',#138,#130,#219,.T.);
#164=EDGE_CURVE('',#131,#137,#220,.T.);
#165=EDGE_CURVE('',#141,#134,#221,.T.);
#166=EDGE_CURVE('',#142,#133,#222,.T.);
#167=COLOUR_RGB('Strong Stone',0.576470588235294,0.54508278019379,0.392156862745098);
#168=COLOUR_RGB('cutting part',0.8,0.8,0.8);
#169=CIRCLE('',#273,1.2);
#170=CIRCLE('',#274,1.2);
#171=CIRCLE('',#275,1.2);
#172=CIRCLE('',#279,1.2);
#173=CIRCLE('',#280,1.2);
#174=CIRCLE('',#281,1.2);
#175=CIRCLE('',#282,1.905);
#176=CIRCLE('',#283,1.905);
#177=CIRCLE('',#285,1.2);
#178=CIRCLE('',#287,1.2);
#179=CIRCLE('',#288,1.2);
#180=CIRCLE('',#289,1.905);
#181=CIRCLE('',#290,1.905);
#182=CURVE_STYLE('',#191,POSITIVE_LENGTH_MEASURE(0.18),#271);
#183=CURVE_STYLE('',#192,POSITIVE_LENGTH_MEASURE(0.18),#271);
#184=CURVE_STYLE('',#193,POSITIVE_LENGTH_MEASURE(0.18),#271);
#185=CURVE_STYLE('',#194,POSITIVE_LENGTH_MEASURE(0.18),#271);
#186=CURVE_STYLE('',#195,POSITIVE_LENGTH_MEASURE(0.18),#271);
#187=CURVE_STYLE('',#196,POSITIVE_LENGTH_MEASURE(0.18),#271);
#188=CURVE_STYLE('',#197,POSITIVE_LENGTH_MEASURE(0.13),#270);
#189=CURVE_STYLE('',#198,POSITIVE_LENGTH_MEASURE(0.13),#270);
#190=CURVE_STYLE('',#199,POSITIVE_LENGTH_MEASURE(0.13),#167);
#191=DRAUGHTING_PRE_DEFINED_CURVE_FONT('continuous');
#192=DRAUGHTING_PRE_DEFINED_CURVE_FONT('continuous');
#193=DRAUGHTING_PRE_DEFINED_CURVE_FONT('continuous');
#194=DRAUGHTING_PRE_DEFINED_CURVE_FONT('continuous');
#195=DRAUGHTING_PRE_DEFINED_CURVE_FONT('continuous');
#196=DRAUGHTING_PRE_DEFINED_CURVE_FONT('continuous');
#197=DRAUGHTING_PRE_DEFINED_CURVE_FONT('continuous');
#198=DRAUGHTING_PRE_DEFINED_CURVE_FONT('continuous');
#199=DRAUGHTING_PRE_DEFINED_CURVE_FONT('continuous');
#200=TRIMMED_CURVE('',#206,(PARAMETER_VALUE(0.)),(PARAMETER_VALUE(1.)),
 .T.,.PARAMETER.);
#201=TRIMMED_CURVE('',#207,(PARAMETER_VALUE(0.)),(PARAMETER_VALUE(1.)),
 .T.,.PARAMETER.);
#202=TRIMMED_CURVE('',#208,(PARAMETER_VALUE(0.)),(PARAMETER_VALUE(1.)),
 .T.,.PARAMETER.);
#203=TRIMMED_CURVE('',#169,(PARAMETER_VALUE(0.)),(PARAMETER_VALUE(120.)),
 .T.,.PARAMETER.);
#204=TRIMMED_CURVE('',#170,(PARAMETER_VALUE(0.)),(PARAMETER_VALUE(119.9999999994)),
 .T.,.PARAMETER.);
#205=TRIMMED_CURVE('',#171,(PARAMETER_VALUE(0.)),(PARAMETER_VALUE(119.9999999998)),
 .T.,.PARAMETER.);
#206=LINE('',#373,#223);
#207=LINE('',#374,#224);
#208=LINE('',#375,#225);
#209=LINE('',#382,#226);
#210=LINE('',#387,#227);
#211=LINE('',#391,#228);
#212=LINE('',#399,#229);
#213=LINE('',#401,#230);
#214=LINE('',#405,#231);
#215=LINE('',#409,#232);
#216=LINE('',#413,#233);
#217=LINE('',#419,#234);
#218=LINE('',#421,#235);
#219=LINE('',#423,#236);
#220=LINE('',#425,#237);
#221=LINE('',#428,#238);
#222=LINE('',#429,#239);
#223=VECTOR('',#301,12.34086200393);
#224=VECTOR('',#302,12.3408620039296);
#225=VECTOR('',#303,12.3408620039396);
#226=VECTOR('',#316,1.);
#227=VECTOR('',#319,1.);
#228=VECTOR('',#322,1.);
#229=VECTOR('',#331,1.);
#230=VECTOR('',#332,1.);
#231=VECTOR('',#337,1.);
#232=VECTOR('',#340,1.);
#233=VECTOR('',#343,1.);
#234=VECTOR('',#350,1.);
#235=VECTOR('',#353,1.);
#236=VECTOR('',#356,1.);
#237=VECTOR('',#359,1.);
#238=VECTOR('',#364,1.);
#239=VECTOR('',#365,1.);
#240=PRESENTATION_LAYER_ASSIGNMENT('1','Layer 1',(#371,#372,#276,#277,#278,
#33));
#241=PRESENTATION_LAYER_ASSIGNMENT('2','Layer 2',(#200,#201,#202,#203,#204,
#205));
#242=STYLED_ITEM('',(#254),#371);
#243=STYLED_ITEM('',(#255),#372);
#244=STYLED_ITEM('',(#256),#200);
#245=STYLED_ITEM('',(#257),#201);
#246=STYLED_ITEM('',(#258),#202);
#247=STYLED_ITEM('',(#259),#203);
#248=STYLED_ITEM('',(#260),#204);
#249=STYLED_ITEM('',(#261),#205);
#250=STYLED_ITEM('',(#262),#276);
#251=STYLED_ITEM('',(#263),#277);
#252=STYLED_ITEM('',(#264),#278);
#253=STYLED_ITEM('',(#265),#33);
#254=PRESENTATION_STYLE_ASSIGNMENT((#266));
#255=PRESENTATION_STYLE_ASSIGNMENT((#267));
#256=PRESENTATION_STYLE_ASSIGNMENT((#182));
#257=PRESENTATION_STYLE_ASSIGNMENT((#183));
#258=PRESENTATION_STYLE_ASSIGNMENT((#184));
#259=PRESENTATION_STYLE_ASSIGNMENT((#185));
#260=PRESENTATION_STYLE_ASSIGNMENT((#186));
#261=PRESENTATION_STYLE_ASSIGNMENT((#187));
#262=PRESENTATION_STYLE_ASSIGNMENT((#188));
#263=PRESENTATION_STYLE_ASSIGNMENT((#189));
#264=PRESENTATION_STYLE_ASSIGNMENT((#190));
#265=PRESENTATION_STYLE_ASSIGNMENT((#28));
#266=POINT_STYLE('',#268,POSITIVE_LENGTH_MEASURE(3.),#270);
#267=POINT_STYLE('',#269,POSITIVE_LENGTH_MEASURE(3.),#270);
#268=PRE_DEFINED_POINT_MARKER_SYMBOL('plus');
#269=PRE_DEFINED_POINT_MARKER_SYMBOL('plus');
#270=DRAUGHTING_PRE_DEFINED_COLOUR('yellow');
#271=DRAUGHTING_PRE_DEFINED_COLOUR('blue');
#272=AXIS2_PLACEMENT_3D('',#370,#299,#300);
#273=AXIS2_PLACEMENT_3D('',#376,#304,#305);
#274=AXIS2_PLACEMENT_3D('',#377,#306,#307);
#275=AXIS2_PLACEMENT_3D('',#378,#308,#309);
#276=AXIS2_PLACEMENT_3D('MCS',#379,#310,#311);
#277=AXIS2_PLACEMENT_3D('PCS',#380,#312,#313);
#278=AXIS2_PLACEMENT_3D('',#381,#314,#315);
#279=AXIS2_PLACEMENT_3D('',#385,#317,#318);
#280=AXIS2_PLACEMENT_3D('',#389,#320,#321);
#281=AXIS2_PLACEMENT_3D('',#393,#323,#324);
#282=AXIS2_PLACEMENT_3D('',#394,#325,#326);
#283=AXIS2_PLACEMENT_3D('',#397,#327,#328);
#284=AXIS2_PLACEMENT_3D('',#398,#329,#330);
#285=AXIS2_PLACEMENT_3D('',#403,#333,#334);
#286=AXIS2_PLACEMENT_3D('',#404,#335,#336);
#287=AXIS2_PLACEMENT_3D('',#407,#338,#339);
#288=AXIS2_PLACEMENT_3D('',#411,#341,#342);
#289=AXIS2_PLACEMENT_3D('',#414,#344,#345);
#290=AXIS2_PLACEMENT_3D('',#417,#346,#347);
#291=AXIS2_PLACEMENT_3D('',#418,#348,#349);
#292=AXIS2_PLACEMENT_3D('',#420,#351,#352);
#293=AXIS2_PLACEMENT_3D('',#422,#354,#355);
#294=AXIS2_PLACEMENT_3D('',#424,#357,#358);
#295=AXIS2_PLACEMENT_3D('',#426,#360,#361);
#296=AXIS2_PLACEMENT_3D('',#427,#362,#363);
#297=AXIS2_PLACEMENT_3D('',#430,#366,#367);
#298=AXIS2_PLACEMENT_3D('',#431,#368,#369);
#299=DIRECTION('',(0.,0.,1.));
#300=DIRECTION('',(1.,0.,0.));
#301=DIRECTION('',(-1.,0.,0.));
#302=DIRECTION('',(0.500000000000017,0.866025403784429,0.));
#303=DIRECTION('',(0.500000000000017,-0.866025403784429,0.));
#304=DIRECTION('',(0.,0.,-1.));
#305=DIRECTION('',(-2.02384405530627E-14,-1.,0.));
#306=DIRECTION('',(0.,0.,-1.));
#307=DIRECTION('',(-0.866025403782885,0.500000000002691,0.));
#308=DIRECTION('',(0.,0.,-1.));
#309=DIRECTION('',(0.866025403785998,0.499999999997299,0.));
#310=DIRECTION('',(0.,0.,1.));
#311=DIRECTION('',(1.,0.,0.));
#312=DIRECTION('',(0.,0.,1.));
#313=DIRECTION('',(1.,0.,0.));
#314=DIRECTION('',(0.,0.,1.));
#315=DIRECTION('',(1.,0.,0.));
#316=DIRECTION('',(0.500000000000017,0.866025403784429,0.));
#317=DIRECTION('',(0.,0.,-1.));
#318=DIRECTION('',(-2.02384405530628E-14,-1.,0.));
#319=DIRECTION('',(-1.,0.,0.));
#320=DIRECTION('',(0.,0.,-1.));
#321=DIRECTION('',(0.866025403785998,0.499999999997299,0.));
#322=DIRECTION('',(0.500000000000017,-0.866025403784429,0.));
#323=DIRECTION('',(0.,0.,-1.));
#324=DIRECTION('',(-0.866025403782885,0.500000000002691,0.));
#325=DIRECTION('',(0.,0.,1.));
#326=DIRECTION('',(1.,0.,0.));
#327=DIRECTION('',(0.,0.,1.));
#328=DIRECTION('',(-1.,0.,0.));
#329=DIRECTION('',(0.,0.,1.));
#330=DIRECTION('',(-1.,0.,0.));
#331=DIRECTION('',(0.,0.,-1.));
#332=DIRECTION('',(0.,0.,1.));
#333=DIRECTION('',(0.,0.,1.));
#334=DIRECTION('',(0.866025403780956,0.500000000006032,0.));
#335=DIRECTION('',(0.,0.,-1.));
#336=DIRECTION('',(0.866025403784429,-0.500000000000017,0.));
#337=DIRECTION('',(-0.500000000000017,0.866025403784429,0.));
#338=DIRECTION('',(0.,0.,1.));
#339=DIRECTION('',(2.02384405530628E-14,-1.,0.));
#340=DIRECTION('',(-1.,0.,0.));
#341=DIRECTION('',(0.,0.,1.));
#342=DIRECTION('',(-0.866025403784094,0.500000000000597,0.));
#343=DIRECTION('',(-0.500000000000017,-0.866025403784429,0.));
#344=DIRECTION('',(0.,0.,-1.));
#345=DIRECTION('',(-1.,0.,0.));
#346=DIRECTION('',(0.,0.,-1.));
#347=DIRECTION('',(1.,0.,0.));
#348=DIRECTION('',(0.,0.,1.));
#349=DIRECTION('',(-1.,0.,0.));
#350=DIRECTION('',(0.,0.,1.));
#351=DIRECTION('',(-0.866025403784429,0.500000000000017,0.));
#352=DIRECTION('',(0.500000000000017,0.866025403784429,0.));
#353=DIRECTION('',(0.,0.,-1.));
#354=DIRECTION('',(0.,0.,-1.));
#355=DIRECTION('',(0.,1.,0.));
#356=DIRECTION('',(0.,0.,1.));
#357=DIRECTION('',(0.,-1.,0.));
#358=DIRECTION('',(-1.,0.,0.));
#359=DIRECTION('',(0.,0.,-1.));
#360=DIRECTION('',(0.,0.,-1.));
#361=DIRECTION('',(-0.866025403784429,-0.500000000000017,0.));
#362=DIRECTION('',(0.866025403784429,0.500000000000017,0.));
#363=DIRECTION('',(0.500000000000017,-0.866025403784429,0.));
#364=DIRECTION('',(0.,0.,1.));
#365=DIRECTION('',(0.,0.,1.));
#366=DIRECTION('',(0.,0.,-1.));
#367=DIRECTION('',(1.,0.,0.));
#368=DIRECTION('',(0.,0.,-1.));
#369=DIRECTION('',(1.,0.,0.));
#370=CARTESIAN_POINT('',(0.,0.,0.));
#371=CARTESIAN_POINT('',(0.,0.,0.));
#372=CARTESIAN_POINT('',(-8.248891971047,-4.7625,0.));
#373=CARTESIAN_POINT('',(6.170431001964,-4.7625,0.));
#374=CARTESIAN_POINT('',(-7.209661486505,-2.962499999999,0.));
#375=CARTESIAN_POINT('',(1.039230484537,7.725000000007,0.));
#376=CARTESIAN_POINT('',(-6.170431001964,-3.5625,0.));
#377=CARTESIAN_POINT('',(0.,7.125,0.));
#378=CARTESIAN_POINT('',(6.170431001964,-3.5625,0.));
#379=CARTESIAN_POINT('',(0.,0.,0.));
#380=CARTESIAN_POINT('',(-8.248891971047,-4.7625,0.));
#381=CARTESIAN_POINT('',(0.,0.,0.));
#382=CARTESIAN_POINT('',(-7.209661486505,-2.9625,0.));
#383=CARTESIAN_POINT('',(-7.209661486505,-2.962499999999,0.));
#384=CARTESIAN_POINT('',(-1.039230484539,7.725000000003,0.));
#385=CARTESIAN_POINT('',(-6.170431001964,-3.5625,0.));
#386=CARTESIAN_POINT('',(-6.170431001964,-4.7625,0.));
#387=CARTESIAN_POINT('',(6.170431001964,-4.7625,0.));
#388=CARTESIAN_POINT('',(6.170431001964,-4.7625,0.));
#389=CARTESIAN_POINT('',(6.170431001964,-3.5625,0.));
#390=CARTESIAN_POINT('',(7.209661486506,-2.962500000001,0.));
#391=CARTESIAN_POINT('',(1.03923048454,7.725000000002,0.));
#392=CARTESIAN_POINT('',(1.039230484537,7.725000000007,0.));
#393=CARTESIAN_POINT('',(0.,7.125,0.));
#394=CARTESIAN_POINT('',(0.,0.,0.));
#395=CARTESIAN_POINT('',(1.905,0.,0.));
#396=CARTESIAN_POINT('',(-1.905,0.,0.));
#397=CARTESIAN_POINT('',(0.,0.,0.));
#398=CARTESIAN_POINT('',(0.,0.,0.));
#399=CARTESIAN_POINT('',(-1.039230484541,7.725000000001,0.));
#400=CARTESIAN_POINT('',(-1.039230484539,7.725000000003,-4.76));
#401=CARTESIAN_POINT('',(1.03923048454,7.725000000002,-4.76));
#402=CARTESIAN_POINT('',(1.039230484537,7.725000000007,-4.76));
#403=CARTESIAN_POINT('',(0.,7.125,-4.76));
#404=CARTESIAN_POINT('',(0.,7.125,6.205136));
#405=CARTESIAN_POINT('',(7.209661486506,-2.962500000001,-4.76));
#406=CARTESIAN_POINT('',(7.209661486507,-2.962500000003,-4.76));
#407=CARTESIAN_POINT('',(6.170431001964,-3.5625,-4.76));
#408=CARTESIAN_POINT('',(6.170431001964,-4.7625,-4.76));
#409=CARTESIAN_POINT('',(6.170431001964,-4.7625,-4.76));
#410=CARTESIAN_POINT('',(-6.170431001964,-4.7625,-4.76));
#411=CARTESIAN_POINT('',(-6.170431001964,-3.5625,-4.76));
#412=CARTESIAN_POINT('',(-7.209661486505,-2.9625,-4.76));
#413=CARTESIAN_POINT('',(-1.039230484541,7.725000000001,-4.76));
#414=CARTESIAN_POINT('',(0.,0.,-4.76));
#415=CARTESIAN_POINT('',(-1.905,0.,-4.76));
#416=CARTESIAN_POINT('',(1.905,0.,-4.76));
#417=CARTESIAN_POINT('',(0.,0.,-4.76));
#418=CARTESIAN_POINT('',(0.,0.,-4.76));
#419=CARTESIAN_POINT('',(-7.209661486505,-2.9625,-4.76));
#420=CARTESIAN_POINT('',(0.,9.525,0.));
#421=CARTESIAN_POINT('',(-6.170431001964,-4.7625,0.));
#422=CARTESIAN_POINT('',(-6.170431001964,-3.5625,6.205136));
#423=CARTESIAN_POINT('',(6.170431001964,-4.7625,-4.76));
#424=CARTESIAN_POINT('',(-8.248891971047,-4.7625,0.));
#425=CARTESIAN_POINT('',(7.209661486506,-2.962500000001,0.));
#426=CARTESIAN_POINT('',(6.170431001964,-3.5625,6.205136));
#427=CARTESIAN_POINT('',(8.248891971047,-4.7625,0.));
#428=CARTESIAN_POINT('',(-1.905,0.,0.));
#429=CARTESIAN_POINT('',(1.905,0.,0.));
#430=CARTESIAN_POINT('',(0.,0.,0.238));
#431=CARTESIAN_POINT('',(0.,0.,0.238));
#432=MECHANICAL_DESIGN_GEOMETRIC_PRESENTATION_REPRESENTATION('',(#242,#243,
#244,#245,#246,#247,#248,#249,#250,#251,#252,#253),#433);
#433=(
GEOMETRIC_REPRESENTATION_CONTEXT(3)
GLOBAL_UNCERTAINTY_ASSIGNED_CONTEXT((#434))
GLOBAL_UNIT_ASSIGNED_CONTEXT((#440,#436,#435))
REPRESENTATION_CONTEXT('TN160412N','TOP_LEVEL_ASSEMBLY_PART')
);
#434=UNCERTAINTY_MEASURE_WITH_UNIT(LENGTH_MEASURE(2.E-5),#440,
'DISTANCE_ACCURACY_VALUE','Maximum Tolerance applied to model');
#435=(
NAMED_UNIT(*)
SI_UNIT($,.STERADIAN.)
SOLID_ANGLE_UNIT()
);
#436=(
CONVERSION_BASED_UNIT('DEGREE',#438)
NAMED_UNIT(#437)
PLANE_ANGLE_UNIT()
);
#437=DIMENSIONAL_EXPONENTS(0.,0.,0.,0.,0.,0.,0.);
#438=PLANE_ANGLE_MEASURE_WITH_UNIT(PLANE_ANGLE_MEASURE(0.0174532925),#439);
#439=(
NAMED_UNIT(*)
PLANE_ANGLE_UNIT()
SI_UNIT($,.RADIAN.)
);
#440=(
LENGTH_UNIT()
NAMED_UNIT(*)
SI_UNIT(.MILLI.,.METRE.)
);
ENDSEC;
END-ISO-10303-21;
