ISO-10303-21;
HEADER;
/* Generated by software containing ST-Developer
 * from STEP Tools, Inc. (www.steptools.com) 
 */
/* OPTION: using custom schema-name function */

FILE_DESCRIPTION(
/* description */ (''),
/* implementation_level */ '2;1');

FILE_NAME(
/* name */ 'TP110302N.stp',
/* time_stamp */ '2021-12-22T08:51:07+09:00',
/* author */ (''),
/* organization */ (''),
/* preprocessor_version */ 'ST-DEVELOPER v16',
/* originating_system */ 'SIEMENS PLM Software NX 10.0',
/* authorisation */ '');

FILE_SCHEMA (('AUTOMOTIVE_DESIGN { 1 0 10303 214 3 1 1 1 }'));
ENDSEC;

DATA;
#10=CONSTRUCTIVE_GEOMETRY_REPRESENTATION_RELATIONSHIP(
'supplemental geometry','',#26,#11);
#11=CONSTRUCTIVE_GEOMETRY_REPRESENTATION('supplemental geometry',(#334,
#335,#336),#533);
#12=GEOMETRICALLY_BOUNDED_WIREFRAME_SHAPE_REPRESENTATION(
'TP110302N-None',(#27),#533);
#13=SHAPE_REPRESENTATION_RELATIONSHIP('None',
'relationship between TP110302N-None and TP110302N-None',#26,#15);
#14=SHAPE_REPRESENTATION_RELATIONSHIP('None',
'relationship between TP110302N-None and TP110302N-None',#26,#12);
#15=ADVANCED_BREP_SHAPE_REPRESENTATION('TP110302N-None',(#33),#533);
#16=SHAPE_DEFINITION_REPRESENTATION(#17,#26);
#17=PRODUCT_DEFINITION_SHAPE('','',#18);
#18=PRODUCT_DEFINITION('part definition','',#20,#19);
#19=PRODUCT_DEFINITION_CONTEXT('part definition',#25,'design');
#20=PRODUCT_DEFINITION_FORMATION_WITH_SPECIFIED_SOURCE(' ',' ',#22,
 .NOT_KNOWN.);
#21=PRODUCT_RELATED_PRODUCT_CATEGORY('part','',(#22));
#22=PRODUCT('TP110302L','TP110302L','NOT SPECIFIED',(#23));
#23=PRODUCT_CONTEXT('',#25,'mechanical');
#24=APPLICATION_PROTOCOL_DEFINITION('international standard',
'automotive_design',2010,#25);
#25=APPLICATION_CONTEXT(
'core data for automotive mechanical design processes');
#26=SHAPE_REPRESENTATION('TP110302N-None',(#330),#533);
#27=GEOMETRIC_CURVE_SET('None',(#455,#456,#247,#248,#249,#250,#251,#252));
#28=SURFACE_STYLE_USAGE(.BOTH.,#29);
#29=SURFACE_SIDE_STYLE('',(#30));
#30=SURFACE_STYLE_FILL_AREA(#31);
#31=FILL_AREA_STYLE('',(#32));
#32=FILL_AREA_STYLE_COLOUR('',#212);
#33=MANIFOLD_SOLID_BREP('',#34);
#34=CLOSED_SHELL('',(#56,#57,#58,#59,#60,#61,#62,#63,#64,#65,#66,#67,#68,
#69));
#35=TOROIDAL_SURFACE('',#359,3.5,1.8);
#36=TOROIDAL_SURFACE('',#361,3.5,1.8);
#37=CYLINDRICAL_SURFACE('',#353,1.7);
#38=CYLINDRICAL_SURFACE('',#355,1.7);
#39=CONICAL_SURFACE('',#343,0.102,11.);
#40=CONICAL_SURFACE('',#350,0.102,11.);
#41=CONICAL_SURFACE('',#351,0.102,11.);
#42=CONICAL_SURFACE('',#362,2.250568634689,39.);
#43=CONICAL_SURFACE('',#363,2.250568634689,39.);
#44=FACE_OUTER_BOUND('',#81,.T.);
#45=FACE_OUTER_BOUND('',#82,.T.);
#46=FACE_OUTER_BOUND('',#85,.T.);
#47=FACE_OUTER_BOUND('',#86,.T.);
#48=FACE_OUTER_BOUND('',#87,.T.);
#49=FACE_OUTER_BOUND('',#88,.T.);
#50=FACE_OUTER_BOUND('',#89,.T.);
#51=FACE_OUTER_BOUND('',#90,.T.);
#52=FACE_OUTER_BOUND('',#91,.T.);
#53=FACE_OUTER_BOUND('',#92,.T.);
#54=FACE_OUTER_BOUND('',#93,.T.);
#55=FACE_OUTER_BOUND('',#94,.T.);
#56=ADVANCED_FACE('',(#75,#76),#70,.T.);
#57=ADVANCED_FACE('',(#44),#39,.T.);
#58=ADVANCED_FACE('',(#45),#71,.T.);
#59=ADVANCED_FACE('',(#77,#78),#72,.F.);
#60=ADVANCED_FACE('',(#46),#73,.T.);
#61=ADVANCED_FACE('',(#47),#74,.T.);
#62=ADVANCED_FACE('',(#48),#40,.T.);
#63=ADVANCED_FACE('',(#49),#41,.T.);
#64=ADVANCED_FACE('',(#50),#37,.F.);
#65=ADVANCED_FACE('',(#51),#38,.F.);
#66=ADVANCED_FACE('',(#52),#35,.T.);
#67=ADVANCED_FACE('',(#53),#36,.T.);
#68=ADVANCED_FACE('',(#54),#42,.F.);
#69=ADVANCED_FACE('',(#55),#43,.F.);
#70=PLANE('',#342);
#71=PLANE('',#344);
#72=PLANE('',#347);
#73=PLANE('',#348);
#74=PLANE('',#349);
#75=FACE_BOUND('',#79,.T.);
#76=FACE_BOUND('',#80,.T.);
#77=FACE_BOUND('',#83,.T.);
#78=FACE_BOUND('',#84,.T.);
#79=EDGE_LOOP('',(#95,#96,#97,#98,#99,#100));
#80=EDGE_LOOP('',(#101,#102));
#81=EDGE_LOOP('',(#103,#104,#105));
#82=EDGE_LOOP('',(#106,#107,#108,#109,#110,#111));
#83=EDGE_LOOP('',(#112,#113,#114));
#84=EDGE_LOOP('',(#115,#116));
#85=EDGE_LOOP('',(#117,#118,#119,#120,#121,#122));
#86=EDGE_LOOP('',(#123,#124,#125,#126,#127,#128));
#87=EDGE_LOOP('',(#129,#130,#131));
#88=EDGE_LOOP('',(#132,#133,#134));
#89=EDGE_LOOP('',(#135,#136,#137,#138));
#90=EDGE_LOOP('',(#139,#140,#141,#142));
#91=EDGE_LOOP('',(#143,#144,#145,#146));
#92=EDGE_LOOP('',(#147,#148,#149,#150));
#93=EDGE_LOOP('',(#151,#152,#153,#154));
#94=EDGE_LOOP('',(#155,#156,#157,#158));
#95=ORIENTED_EDGE('',*,*,#179,.F.);
#96=ORIENTED_EDGE('',*,*,#180,.F.);
#97=ORIENTED_EDGE('',*,*,#181,.F.);
#98=ORIENTED_EDGE('',*,*,#182,.F.);
#99=ORIENTED_EDGE('',*,*,#183,.F.);
#100=ORIENTED_EDGE('',*,*,#184,.F.);
#101=ORIENTED_EDGE('',*,*,#185,.F.);
#102=ORIENTED_EDGE('',*,*,#186,.F.);
#103=ORIENTED_EDGE('',*,*,#187,.F.);
#104=ORIENTED_EDGE('',*,*,#184,.T.);
#105=ORIENTED_EDGE('',*,*,#188,.F.);
#106=ORIENTED_EDGE('',*,*,#189,.T.);
#107=ORIENTED_EDGE('',*,*,#188,.T.);
#108=ORIENTED_EDGE('',*,*,#183,.T.);
#109=ORIENTED_EDGE('',*,*,#190,.T.);
#110=ORIENTED_EDGE('',*,*,#191,.F.);
#111=ORIENTED_EDGE('',*,*,#192,.T.);
#112=ORIENTED_EDGE('',*,*,#193,.F.);
#113=ORIENTED_EDGE('',*,*,#192,.F.);
#114=ORIENTED_EDGE('',*,*,#194,.F.);
#115=ORIENTED_EDGE('',*,*,#195,.F.);
#116=ORIENTED_EDGE('',*,*,#196,.F.);
#117=ORIENTED_EDGE('',*,*,#191,.T.);
#118=ORIENTED_EDGE('',*,*,#197,.T.);
#119=ORIENTED_EDGE('',*,*,#181,.T.);
#120=ORIENTED_EDGE('',*,*,#198,.T.);
#121=ORIENTED_EDGE('',*,*,#199,.F.);
#122=ORIENTED_EDGE('',*,*,#194,.T.);
#123=ORIENTED_EDGE('',*,*,#199,.T.);
#124=ORIENTED_EDGE('',*,*,#200,.T.);
#125=ORIENTED_EDGE('',*,*,#179,.T.);
#126=ORIENTED_EDGE('',*,*,#187,.T.);
#127=ORIENTED_EDGE('',*,*,#189,.F.);
#128=ORIENTED_EDGE('',*,*,#193,.T.);
#129=ORIENTED_EDGE('',*,*,#198,.F.);
#130=ORIENTED_EDGE('',*,*,#180,.T.);
#131=ORIENTED_EDGE('',*,*,#200,.F.);
#132=ORIENTED_EDGE('',*,*,#190,.F.);
#133=ORIENTED_EDGE('',*,*,#182,.T.);
#134=ORIENTED_EDGE('',*,*,#197,.F.);
#135=ORIENTED_EDGE('',*,*,#201,.T.);
#136=ORIENTED_EDGE('',*,*,#202,.T.);
#137=ORIENTED_EDGE('',*,*,#203,.F.);
#138=ORIENTED_EDGE('',*,*,#196,.T.);
#139=ORIENTED_EDGE('',*,*,#203,.T.);
#140=ORIENTED_EDGE('',*,*,#204,.T.);
#141=ORIENTED_EDGE('',*,*,#201,.F.);
#142=ORIENTED_EDGE('',*,*,#195,.T.);
#143=ORIENTED_EDGE('',*,*,#205,.F.);
#144=ORIENTED_EDGE('',*,*,#206,.T.);
#145=ORIENTED_EDGE('',*,*,#204,.F.);
#146=ORIENTED_EDGE('',*,*,#207,.F.);
#147=ORIENTED_EDGE('',*,*,#202,.F.);
#148=ORIENTED_EDGE('',*,*,#206,.F.);
#149=ORIENTED_EDGE('',*,*,#208,.F.);
#150=ORIENTED_EDGE('',*,*,#207,.T.);
#151=ORIENTED_EDGE('',*,*,#209,.F.);
#152=ORIENTED_EDGE('',*,*,#208,.T.);
#153=ORIENTED_EDGE('',*,*,#210,.T.);
#154=ORIENTED_EDGE('',*,*,#186,.T.);
#155=ORIENTED_EDGE('',*,*,#210,.F.);
#156=ORIENTED_EDGE('',*,*,#205,.T.);
#157=ORIENTED_EDGE('',*,*,#209,.T.);
#158=ORIENTED_EDGE('',*,*,#185,.T.);
#159=VERTEX_POINT('',#467);
#160=VERTEX_POINT('',#468);
#161=VERTEX_POINT('',#470);
#162=VERTEX_POINT('',#472);
#163=VERTEX_POINT('',#474);
#164=VERTEX_POINT('',#476);
#165=VERTEX_POINT('',#479);
#166=VERTEX_POINT('',#480);
#167=VERTEX_POINT('',#484);
#168=VERTEX_POINT('',#488);
#169=VERTEX_POINT('',#490);
#170=VERTEX_POINT('',#492);
#171=VERTEX_POINT('',#496);
#172=VERTEX_POINT('',#499);
#173=VERTEX_POINT('',#500);
#174=VERTEX_POINT('',#505);
#175=VERTEX_POINT('',#513);
#176=VERTEX_POINT('',#515);
#177=VERTEX_POINT('',#521);
#178=VERTEX_POINT('',#522);
#179=EDGE_CURVE('',#159,#160,#256,.T.);
#180=EDGE_CURVE('',#161,#159,#216,.T.);
#181=EDGE_CURVE('',#162,#161,#257,.T.);
#182=EDGE_CURVE('',#163,#162,#217,.T.);
#183=EDGE_CURVE('',#164,#163,#258,.T.);
#184=EDGE_CURVE('',#160,#164,#218,.T.);
#185=EDGE_CURVE('',#165,#166,#219,.T.);
#186=EDGE_CURVE('',#166,#165,#220,.T.);
#187=EDGE_CURVE('',#160,#167,#259,.T.);
#188=EDGE_CURVE('',#167,#164,#260,.T.);
#189=EDGE_CURVE('',#168,#167,#261,.T.);
#190=EDGE_CURVE('',#163,#169,#262,.T.);
#191=EDGE_CURVE('',#170,#169,#263,.T.);
#192=EDGE_CURVE('',#170,#168,#264,.T.);
#193=EDGE_CURVE('',#168,#171,#265,.T.);
#194=EDGE_CURVE('',#171,#170,#266,.T.);
#195=EDGE_CURVE('',#172,#173,#221,.T.);
#196=EDGE_CURVE('',#173,#172,#222,.T.);
#197=EDGE_CURVE('',#169,#162,#267,.T.);
#198=EDGE_CURVE('',#161,#174,#268,.T.);
#199=EDGE_CURVE('',#171,#174,#269,.T.);
#200=EDGE_CURVE('',#174,#159,#270,.T.);
#201=EDGE_CURVE('',#172,#175,#271,.T.);
#202=EDGE_CURVE('',#175,#176,#223,.T.);
#203=EDGE_CURVE('',#173,#176,#272,.T.);
#204=EDGE_CURVE('',#176,#175,#224,.T.);
#205=EDGE_CURVE('',#177,#178,#225,.T.);
#206=EDGE_CURVE('',#177,#175,#226,.T.);
#207=EDGE_CURVE('',#178,#176,#227,.T.);
#208=EDGE_CURVE('',#178,#177,#228,.T.);
#209=EDGE_CURVE('',#178,#165,#273,.T.);
#210=EDGE_CURVE('',#177,#166,#274,.T.);
#211=COLOUR_RGB('Strong Stone',0.576470588235294,0.54508278019379,0.392156862745098);
#212=COLOUR_RGB('cutting part',0.8,0.8,0.8);
#213=CIRCLE('',#331,0.2);
#214=CIRCLE('',#332,0.2);
#215=CIRCLE('',#333,0.2);
#216=CIRCLE('',#337,0.2);
#217=CIRCLE('',#338,0.2);
#218=CIRCLE('',#339,0.2);
#219=CIRCLE('',#340,2.4);
#220=CIRCLE('',#341,2.4);
#221=CIRCLE('',#345,1.7);
#222=CIRCLE('',#346,1.7);
#223=CIRCLE('',#352,1.7);
#224=CIRCLE('',#354,1.7);
#225=CIRCLE('',#356,2.101137269377);
#226=CIRCLE('',#357,1.8);
#227=CIRCLE('',#358,1.8);
#228=CIRCLE('',#360,2.101137269377);
#229=CURVE_STYLE('',#238,POSITIVE_LENGTH_MEASURE(0.18),#329);
#230=CURVE_STYLE('',#239,POSITIVE_LENGTH_MEASURE(0.18),#329);
#231=CURVE_STYLE('',#240,POSITIVE_LENGTH_MEASURE(0.18),#329);
#232=CURVE_STYLE('',#241,POSITIVE_LENGTH_MEASURE(0.18),#329);
#233=CURVE_STYLE('',#242,POSITIVE_LENGTH_MEASURE(0.18),#329);
#234=CURVE_STYLE('',#243,POSITIVE_LENGTH_MEASURE(0.18),#329);
#235=CURVE_STYLE('',#244,POSITIVE_LENGTH_MEASURE(0.13),#328);
#236=CURVE_STYLE('',#245,POSITIVE_LENGTH_MEASURE(0.13),#328);
#237=CURVE_STYLE('',#246,POSITIVE_LENGTH_MEASURE(0.13),#211);
#238=DRAUGHTING_PRE_DEFINED_CURVE_FONT('continuous');
#239=DRAUGHTING_PRE_DEFINED_CURVE_FONT('continuous');
#240=DRAUGHTING_PRE_DEFINED_CURVE_FONT('continuous');
#241=DRAUGHTING_PRE_DEFINED_CURVE_FONT('continuous');
#242=DRAUGHTING_PRE_DEFINED_CURVE_FONT('continuous');
#243=DRAUGHTING_PRE_DEFINED_CURVE_FONT('continuous');
#244=DRAUGHTING_PRE_DEFINED_CURVE_FONT('continuous');
#245=DRAUGHTING_PRE_DEFINED_CURVE_FONT('continuous');
#246=DRAUGHTING_PRE_DEFINED_CURVE_FONT('continuous');
#247=TRIMMED_CURVE('',#253,(PARAMETER_VALUE(0.)),(PARAMETER_VALUE(1.)),
 .T.,.PARAMETER.);
#248=TRIMMED_CURVE('',#254,(PARAMETER_VALUE(0.)),(PARAMETER_VALUE(1.)),
 .T.,.PARAMETER.);
#249=TRIMMED_CURVE('',#255,(PARAMETER_VALUE(0.)),(PARAMETER_VALUE(1.)),
 .T.,.PARAMETER.);
#250=TRIMMED_CURVE('',#213,(PARAMETER_VALUE(0.)),(PARAMETER_VALUE(120.0000000014)),
 .T.,.PARAMETER.);
#251=TRIMMED_CURVE('',#214,(PARAMETER_VALUE(0.)),(PARAMETER_VALUE(119.9999999989)),
 .T.,.PARAMETER.);
#252=TRIMMED_CURVE('',#215,(PARAMETER_VALUE(0.)),(PARAMETER_VALUE(120.0000000002)),
 .T.,.PARAMETER.);
#253=LINE('',#457,#275);
#254=LINE('',#458,#276);
#255=LINE('',#459,#277);
#256=LINE('',#466,#278);
#257=LINE('',#471,#279);
#258=LINE('',#475,#280);
#259=LINE('',#483,#281);
#260=LINE('',#485,#282);
#261=LINE('',#487,#283);
#262=LINE('',#489,#284);
#263=LINE('',#491,#285);
#264=LINE('',#493,#286);
#265=LINE('',#495,#287);
#266=LINE('',#497,#288);
#267=LINE('',#503,#289);
#268=LINE('',#504,#290);
#269=LINE('',#506,#291);
#270=LINE('',#508,#292);
#271=LINE('',#512,#293);
#272=LINE('',#516,#294);
#273=LINE('',#528,#295);
#274=LINE('',#529,#296);
#275=VECTOR('',#366,10.30570230503);
#276=VECTOR('',#367,10.3057023050297);
#277=VECTOR('',#368,10.3057023050397);
#278=VECTOR('',#381,1.);
#279=VECTOR('',#384,1.);
#280=VECTOR('',#387,1.);
#281=VECTOR('',#396,1.);
#282=VECTOR('',#397,1.);
#283=VECTOR('',#400,1.);
#284=VECTOR('',#401,1.);
#285=VECTOR('',#402,1.);
#286=VECTOR('',#403,1.);
#287=VECTOR('',#406,1.);
#288=VECTOR('',#407,1.);
#289=VECTOR('',#414,1.);
#290=VECTOR('',#415,1.);
#291=VECTOR('',#416,1.);
#292=VECTOR('',#419,1.);
#293=VECTOR('',#426,1.);
#294=VECTOR('',#429,1.);
#295=VECTOR('',#448,1.);
#296=VECTOR('',#449,1.);
#297=PRESENTATION_LAYER_ASSIGNMENT('5','Layer 5',(#455,#334));
#298=PRESENTATION_LAYER_ASSIGNMENT('1','Layer 1',(#456,#335,#336,#33));
#299=PRESENTATION_LAYER_ASSIGNMENT('2','Layer 2',(#247,#248,#249,#250,#251,
#252));
#300=STYLED_ITEM('',(#312),#455);
#301=STYLED_ITEM('',(#313),#456);
#302=STYLED_ITEM('',(#314),#247);
#303=STYLED_ITEM('',(#315),#248);
#304=STYLED_ITEM('',(#316),#249);
#305=STYLED_ITEM('',(#317),#250);
#306=STYLED_ITEM('',(#318),#251);
#307=STYLED_ITEM('',(#319),#252);
#308=STYLED_ITEM('',(#320),#334);
#309=STYLED_ITEM('',(#321),#335);
#310=STYLED_ITEM('',(#322),#336);
#311=STYLED_ITEM('',(#323),#33);
#312=PRESENTATION_STYLE_ASSIGNMENT((#324));
#313=PRESENTATION_STYLE_ASSIGNMENT((#325));
#314=PRESENTATION_STYLE_ASSIGNMENT((#229));
#315=PRESENTATION_STYLE_ASSIGNMENT((#230));
#316=PRESENTATION_STYLE_ASSIGNMENT((#231));
#317=PRESENTATION_STYLE_ASSIGNMENT((#232));
#318=PRESENTATION_STYLE_ASSIGNMENT((#233));
#319=PRESENTATION_STYLE_ASSIGNMENT((#234));
#320=PRESENTATION_STYLE_ASSIGNMENT((#235));
#321=PRESENTATION_STYLE_ASSIGNMENT((#236));
#322=PRESENTATION_STYLE_ASSIGNMENT((#237));
#323=PRESENTATION_STYLE_ASSIGNMENT((#28));
#324=POINT_STYLE('',#326,POSITIVE_LENGTH_MEASURE(3.),#328);
#325=POINT_STYLE('',#327,POSITIVE_LENGTH_MEASURE(3.),#328);
#326=PRE_DEFINED_POINT_MARKER_SYMBOL('plus');
#327=PRE_DEFINED_POINT_MARKER_SYMBOL('plus');
#328=DRAUGHTING_PRE_DEFINED_COLOUR('yellow');
#329=DRAUGHTING_PRE_DEFINED_COLOUR('blue');
#330=AXIS2_PLACEMENT_3D('',#454,#364,#365);
#331=AXIS2_PLACEMENT_3D('',#460,#369,#370);
#332=AXIS2_PLACEMENT_3D('',#461,#371,#372);
#333=AXIS2_PLACEMENT_3D('',#462,#373,#374);
#334=AXIS2_PLACEMENT_3D('MCS',#463,#375,#376);
#335=AXIS2_PLACEMENT_3D('PCS',#464,#377,#378);
#336=AXIS2_PLACEMENT_3D('',#465,#379,#380);
#337=AXIS2_PLACEMENT_3D('',#469,#382,#383);
#338=AXIS2_PLACEMENT_3D('',#473,#385,#386);
#339=AXIS2_PLACEMENT_3D('',#477,#388,#389);
#340=AXIS2_PLACEMENT_3D('',#478,#390,#391);
#341=AXIS2_PLACEMENT_3D('',#481,#392,#393);
#342=AXIS2_PLACEMENT_3D('',#482,#394,#395);
#343=AXIS2_PLACEMENT_3D('',#486,#398,#399);
#344=AXIS2_PLACEMENT_3D('',#494,#404,#405);
#345=AXIS2_PLACEMENT_3D('',#498,#408,#409);
#346=AXIS2_PLACEMENT_3D('',#501,#410,#411);
#347=AXIS2_PLACEMENT_3D('',#502,#412,#413);
#348=AXIS2_PLACEMENT_3D('',#507,#417,#418);
#349=AXIS2_PLACEMENT_3D('',#509,#420,#421);
#350=AXIS2_PLACEMENT_3D('',#510,#422,#423);
#351=AXIS2_PLACEMENT_3D('',#511,#424,#425);
#352=AXIS2_PLACEMENT_3D('',#514,#427,#428);
#353=AXIS2_PLACEMENT_3D('',#517,#430,#431);
#354=AXIS2_PLACEMENT_3D('',#518,#432,#433);
#355=AXIS2_PLACEMENT_3D('',#519,#434,#435);
#356=AXIS2_PLACEMENT_3D('',#520,#436,#437);
#357=AXIS2_PLACEMENT_3D('',#523,#438,#439);
#358=AXIS2_PLACEMENT_3D('',#524,#440,#441);
#359=AXIS2_PLACEMENT_3D('',#525,#442,#443);
#360=AXIS2_PLACEMENT_3D('',#526,#444,#445);
#361=AXIS2_PLACEMENT_3D('',#527,#446,#447);
#362=AXIS2_PLACEMENT_3D('',#530,#450,#451);
#363=AXIS2_PLACEMENT_3D('',#531,#452,#453);
#364=DIRECTION('',(0.,0.,1.));
#365=DIRECTION('',(1.,0.,0.));
#366=DIRECTION('',(-1.,0.,0.));
#367=DIRECTION('',(0.500000000000017,0.866025403784429,0.));
#368=DIRECTION('',(0.500000000000017,-0.866025403784429,0.));
#369=DIRECTION('',(0.,0.,-1.));
#370=DIRECTION('',(0.,-1.,0.));
#371=DIRECTION('',(0.,0.,-1.));
#372=DIRECTION('',(-0.866025403784678,0.499999999999585,0.));
#373=DIRECTION('',(0.,0.,-1.));
#374=DIRECTION('',(0.866025403782525,0.500000000003315,0.));
#375=DIRECTION('',(0.,0.,1.));
#376=DIRECTION('',(1.,0.,0.));
#377=DIRECTION('',(0.,0.,1.));
#378=DIRECTION('',(1.,0.,0.));
#379=DIRECTION('',(0.,0.,1.));
#380=DIRECTION('',(1.,0.,0.));
#381=DIRECTION('',(0.500000000000017,0.866025403784429,0.));
#382=DIRECTION('',(0.,0.,-1.));
#383=DIRECTION('',(0.,-1.,0.));
#384=DIRECTION('',(-1.,0.,0.));
#385=DIRECTION('',(0.,0.,-1.));
#386=DIRECTION('',(0.866025403782524,0.500000000003315,0.));
#387=DIRECTION('',(0.500000000000017,-0.866025403784429,0.));
#388=DIRECTION('',(0.,0.,-1.));
#389=DIRECTION('',(-0.866025403784677,0.499999999999585,0.));
#390=DIRECTION('',(0.,0.,1.));
#391=DIRECTION('',(1.,0.,0.));
#392=DIRECTION('',(0.,0.,1.));
#393=DIRECTION('',(-1.,0.,0.));
#394=DIRECTION('',(0.,0.,1.));
#395=DIRECTION('',(-1.,0.,0.));
#396=DIRECTION('',(0.165245437266694,-0.0954044976882563,-0.981627183447662));
#397=DIRECTION('',(0.165245437265997,0.0954044976892484,0.981627183447683));
#398=DIRECTION('',(0.,0.,1.));
#399=DIRECTION('',(-0.866025403784429,0.500000000000017,5.51906317607825E-17));
#400=DIRECTION('',(1.92557943427607E-14,0.362342410398513,0.932045051285932));
#401=DIRECTION('',(-0.165245437266593,-0.0954044976884759,-0.981627183447658));
#402=DIRECTION('',(0.313797732273493,-0.181171205199196,0.932045051285979));
#403=DIRECTION('',(-0.500000000000017,0.866025403784429,0.));
#404=DIRECTION('',(0.85011407791108,0.490813591723789,-0.190808995376496));
#405=DIRECTION('',(0.499999999999953,-0.866025403784465,1.42145002321606E-14));
#406=DIRECTION('',(-0.500000000000017,-0.866025403784429,0.));
#407=DIRECTION('',(1.,0.,0.));
#408=DIRECTION('',(0.,0.,-1.));
#409=DIRECTION('',(-1.,0.,0.));
#410=DIRECTION('',(0.,0.,-1.));
#411=DIRECTION('',(1.,0.,0.));
#412=DIRECTION('',(0.,0.,1.));
#413=DIRECTION('',(-1.,0.,0.));
#414=DIRECTION('',(-4.99943674335477E-14,-0.190808995376591,0.981627183447655));
#415=DIRECTION('',(-1.31341134782994E-13,0.190808995376591,-0.981627183447655));
#416=DIRECTION('',(-0.313797732273493,-0.181171205199196,0.932045051285979));
#417=DIRECTION('',(0.,-0.981627183447674,-0.190808995376495));
#418=DIRECTION('',(-1.,0.,0.));
#419=DIRECTION('',(-0.165245437266104,0.0954044976896724,0.981627183447624));
#420=DIRECTION('',(-0.85011407791108,0.490813591723789,-0.190808995376496));
#421=DIRECTION('',(0.499999999999953,0.866025403784465,-1.42145002321606E-14));
#422=DIRECTION('',(0.,0.,1.));
#423=DIRECTION('',(0.,-1.,5.51906317607825E-17));
#424=DIRECTION('',(0.,0.,1.));
#425=DIRECTION('',(0.866025403784429,0.500000000000017,5.51906317607825E-17));
#426=DIRECTION('',(0.,0.,1.));
#427=DIRECTION('',(0.,0.,1.));
#428=DIRECTION('',(-1.,0.,0.));
#429=DIRECTION('',(0.,0.,1.));
#430=DIRECTION('',(0.,0.,-1.));
#431=DIRECTION('',(1.,0.,0.));
#432=DIRECTION('',(0.,0.,1.));
#433=DIRECTION('',(1.,0.,0.));
#434=DIRECTION('',(0.,0.,-1.));
#435=DIRECTION('',(1.,0.,0.));
#436=DIRECTION('',(0.,0.,-1.));
#437=DIRECTION('',(-1.,0.,0.));
#438=DIRECTION('',(0.,1.,0.));
#439=DIRECTION('',(0.777145961457001,0.,0.629320391049801));
#440=DIRECTION('',(0.,-1.,0.));
#441=DIRECTION('',(-0.777145961457001,0.,0.629320391049801));
#442=DIRECTION('',(0.,0.,-1.));
#443=DIRECTION('',(1.,0.,0.));
#444=DIRECTION('',(0.,0.,-1.));
#445=DIRECTION('',(1.,0.,0.));
#446=DIRECTION('',(0.,0.,-1.));
#447=DIRECTION('',(1.,0.,0.));
#448=DIRECTION('',(0.629320391049801,0.,0.777145961457001));
#449=DIRECTION('',(-0.629320391049801,0.,0.777145961457001));
#450=DIRECTION('',(0.,0.,1.));
#451=DIRECTION('',(-1.,0.,-3.32790488093865E-17));
#452=DIRECTION('',(0.,0.,1.));
#453=DIRECTION('',(-1.,0.,-3.32790488093865E-17));
#454=CARTESIAN_POINT('',(0.,0.,0.));
#455=CARTESIAN_POINT('',(0.,0.,0.));
#456=CARTESIAN_POINT('',(-5.499261314031,-3.175,0.));
#457=CARTESIAN_POINT('',(5.152851152517,-3.175,0.));
#458=CARTESIAN_POINT('',(-5.326056233272,-2.874999999996,0.));
#459=CARTESIAN_POINT('',(0.1732050807545,6.050000000003,0.));
#460=CARTESIAN_POINT('',(-5.152851152517,-2.975,0.));
#461=CARTESIAN_POINT('',(4.44089209850063E-16,5.95,0.));
#462=CARTESIAN_POINT('',(5.152851152517,-2.975,0.));
#463=CARTESIAN_POINT('',(0.,0.,0.));
#464=CARTESIAN_POINT('',(-5.499261314031,-3.175,0.));
#465=CARTESIAN_POINT('',(0.,0.,0.));
#466=CARTESIAN_POINT('',(-5.326056233273,-2.874999999998,1.051250672867E-14));
#467=CARTESIAN_POINT('',(-5.326056233271,-2.874999999996,0.));
#468=CARTESIAN_POINT('',(-0.1732050807569,6.05,0.));
#469=CARTESIAN_POINT('',(-5.152851152517,-2.975,0.));
#470=CARTESIAN_POINT('',(-5.152851152517,-3.175,0.));
#471=CARTESIAN_POINT('',(5.152851152517,-3.175,0.));
#472=CARTESIAN_POINT('',(5.152851152517,-3.175,0.));
#473=CARTESIAN_POINT('',(5.152851152517,-2.975,0.));
#474=CARTESIAN_POINT('',(5.326056233274,-2.875,0.));
#475=CARTESIAN_POINT('',(0.173205080756,6.050000000001,-1.607333446524E-14));
#476=CARTESIAN_POINT('',(0.1732050807549,6.050000000003,0.));
#477=CARTESIAN_POINT('',(0.,5.95,0.));
#478=CARTESIAN_POINT('',(0.,0.,-1.167954621906E-13));
#479=CARTESIAN_POINT('',(2.4,0.,-1.167954621906E-13));
#480=CARTESIAN_POINT('',(-2.4,0.,-1.167954621906E-13));
#481=CARTESIAN_POINT('',(0.,0.,-1.167954621906E-13));
#482=CARTESIAN_POINT('',(0.,0.,0.));
#483=CARTESIAN_POINT('',(-0.1732050807569,6.05,0.));
#484=CARTESIAN_POINT('',(-8.33407417152E-14,5.95,-1.028910803194));
#485=CARTESIAN_POINT('',(-8.33407417152E-14,5.95,-1.028910803194));
#486=CARTESIAN_POINT('',(0.,5.95,-0.5041662935651));
#487=CARTESIAN_POINT('',(-1.277816527307E-13,5.113741233884,-3.18));
#488=CARTESIAN_POINT('',(-1.278976924368E-13,5.113741233884,-3.18));
#489=CARTESIAN_POINT('',(5.326056233274,-2.875,0.));
#490=CARTESIAN_POINT('',(5.152851152517,-2.975,-1.028910803194));
#491=CARTESIAN_POINT('',(4.428629816923,-2.556870616942,-3.18));
#492=CARTESIAN_POINT('',(4.428629816923,-2.556870616942,-3.18));
#493=CARTESIAN_POINT('',(4.428629816923,-2.556870616942,-3.18));
#494=CARTESIAN_POINT('',(6.059263714127,-4.144952609327,0.));
#495=CARTESIAN_POINT('',(-1.277816527307E-13,5.113741233884,-3.18));
#496=CARTESIAN_POINT('',(-4.428629816924,-2.556870616942,-3.18));
#497=CARTESIAN_POINT('',(-4.428629816924,-2.556870616942,-3.18));
#498=CARTESIAN_POINT('',(0.,0.,-3.18));
#499=CARTESIAN_POINT('',(-1.7,0.,-3.18));
#500=CARTESIAN_POINT('',(1.7,0.,-3.18));
#501=CARTESIAN_POINT('',(0.,0.,-3.18));
#502=CARTESIAN_POINT('',(0.,0.,-3.18));
#503=CARTESIAN_POINT('',(5.152851152517,-2.975,-1.028910803194));
#504=CARTESIAN_POINT('',(-5.152851152517,-3.175,0.));
#505=CARTESIAN_POINT('',(-5.152851152517,-2.975,-1.028910803194));
#506=CARTESIAN_POINT('',(-4.428629816924,-2.556870616942,-3.18));
#507=CARTESIAN_POINT('',(-6.619266114223,-3.175,0.));
#508=CARTESIAN_POINT('',(-5.152851152517,-2.975,-1.028910803194));
#509=CARTESIAN_POINT('',(0.560002400096,7.319952609327,0.));
#510=CARTESIAN_POINT('',(-5.152851152517,-2.975,-0.5041662935651));
#511=CARTESIAN_POINT('',(5.152851152517,-2.975,-0.5041662935651));
#512=CARTESIAN_POINT('',(-1.7,0.,-1.50184144013));
#513=CARTESIAN_POINT('',(-1.7,0.,-1.50184144013));
#514=CARTESIAN_POINT('',(0.,0.,-1.50184144013));
#515=CARTESIAN_POINT('',(1.7,0.,-1.50184144013));
#516=CARTESIAN_POINT('',(1.7,0.,-1.50184144013));
#517=CARTESIAN_POINT('',(0.,0.,0.159));
#518=CARTESIAN_POINT('',(0.,0.,-1.50184144013));
#519=CARTESIAN_POINT('',(0.,0.,0.159));
#520=CARTESIAN_POINT('',(0.,0.,-0.3690647362404));
#521=CARTESIAN_POINT('',(-2.101137269377,0.,-0.3690647362404));
#522=CARTESIAN_POINT('',(2.101137269377,0.,-0.3690647362404));
#523=CARTESIAN_POINT('',(-3.5,0.,-1.50184144013));
#524=CARTESIAN_POINT('',(3.5,0.,-1.50184144013));
#525=CARTESIAN_POINT('',(0.,0.,-1.50184144013));
#526=CARTESIAN_POINT('',(0.,0.,-0.3690647362404));
#527=CARTESIAN_POINT('',(0.,0.,-1.50184144013));
#528=CARTESIAN_POINT('',(2.4,0.,-7.786364146038E-14));
#529=CARTESIAN_POINT('',(-2.4,0.,-7.786364146038E-14));
#530=CARTESIAN_POINT('',(0.,0.,-0.1845323681203));
#531=CARTESIAN_POINT('',(0.,0.,-0.1845323681203));
#532=MECHANICAL_DESIGN_GEOMETRIC_PRESENTATION_REPRESENTATION('',(#300,#301,
#302,#303,#304,#305,#306,#307,#308,#309,#310,#311),#533);
#533=(
GEOMETRIC_REPRESENTATION_CONTEXT(3)
GLOBAL_UNCERTAINTY_ASSIGNED_CONTEXT((#534))
GLOBAL_UNIT_ASSIGNED_CONTEXT((#540,#536,#535))
REPRESENTATION_CONTEXT('TP110302N','TOP_LEVEL_ASSEMBLY_PART')
);
#534=UNCERTAINTY_MEASURE_WITH_UNIT(LENGTH_MEASURE(2.E-5),#540,
'DISTANCE_ACCURACY_VALUE','Maximum Tolerance applied to model');
#535=(
NAMED_UNIT(*)
SI_UNIT($,.STERADIAN.)
SOLID_ANGLE_UNIT()
);
#536=(
CONVERSION_BASED_UNIT('DEGREE',#538)
NAMED_UNIT(#537)
PLANE_ANGLE_UNIT()
);
#537=DIMENSIONAL_EXPONENTS(0.,0.,0.,0.,0.,0.,0.);
#538=PLANE_ANGLE_MEASURE_WITH_UNIT(PLANE_ANGLE_MEASURE(0.0174532925),#539);
#539=(
NAMED_UNIT(*)
PLANE_ANGLE_UNIT()
SI_UNIT($,.RADIAN.)
);
#540=(
LENGTH_UNIT()
NAMED_UNIT(*)
SI_UNIT(.MILLI.,.METRE.)
);
ENDSEC;
END-ISO-10303-21;
