ISO-10303-21;
HEADER;
/* Generated by software containing ST-Developer
 * from STEP Tools, Inc. (www.steptools.com) 
 */
/* OPTION: using custom schema-name function */

FILE_DESCRIPTION(
/* description */ (''),
/* implementation_level */ '2;1');

FILE_NAME(
/* name */ 'VQMHVRBFD5-16R030.stp',
/* time_stamp */ '2016-11-10T13:32:42+09:00',
/* author */ (''),
/* organization */ (''),
/* preprocessor_version */ 'ST-DEVELOPER v16',
/* originating_system */ 'SIEMENS PLM Software NX 10.0',
/* authorisation */ '');

FILE_SCHEMA (('AUTOMOTIVE_DESIGN { 1 0 10303 214 3 1 1 1 }'));
ENDSEC;

DATA;
#10=CONSTRUCTIVE_GEOMETRY_REPRESENTATION_RELATIONSHIP(
'supplemental geometry','',#24,#11);
#11=CONSTRUCTIVE_GEOMETRY_REPRESENTATION('supplemental geometry',(#260,
#261,#262,#263,#264,#265,#266,#267,#268,#269,#270,#271),#449);
#12=SHAPE_REPRESENTATION_RELATIONSHIP('None',
'relationship between VQMHVRBFD5-16R030-None and VQMHVRBFD5-16R030-Non
e',#24,#13);
#13=ADVANCED_BREP_SHAPE_REPRESENTATION('VQMHVRBFD5-16R030-None',(#35,#36),
#449);
#14=SHAPE_DEFINITION_REPRESENTATION(#15,#24);
#15=PRODUCT_DEFINITION_SHAPE('','SHAPE FOR VQMHVRBFD5-16R030_ASM.',#16);
#16=PRODUCT_DEFINITION('part definition','',#18,#17);
#17=PRODUCT_DEFINITION_CONTEXT('part definition',#23,'design');
#18=PRODUCT_DEFINITION_FORMATION_WITH_SPECIFIED_SOURCE(' ',' ',#20,
 .NOT_KNOWN.);
#19=PRODUCT_RELATED_PRODUCT_CATEGORY('part','',(#20));
#20=PRODUCT('VQMHVRBFD5-16R030_ASM','VQMHVRBFD5-16R030_ASM',
'NOT SPECIFIED',(#21));
#21=PRODUCT_CONTEXT('',#23,'mechanical');
#22=APPLICATION_PROTOCOL_DEFINITION('international standard',
'automotive_design',2010,#23);
#23=APPLICATION_CONTEXT(
'core data for automotive mechanical design processes');
#24=SHAPE_REPRESENTATION('VQMHVRBFD5-16R030-None',(#259),#449);
#25=SURFACE_STYLE_USAGE(.BOTH.,#27);
#26=SURFACE_STYLE_USAGE(.BOTH.,#28);
#27=SURFACE_SIDE_STYLE('',(#29));
#28=SURFACE_SIDE_STYLE('',(#30));
#29=SURFACE_STYLE_FILL_AREA(#31);
#30=SURFACE_STYLE_FILL_AREA(#32);
#31=FILL_AREA_STYLE('',(#33));
#32=FILL_AREA_STYLE('',(#34));
#33=FILL_AREA_STYLE_COLOUR('',#245);
#34=FILL_AREA_STYLE_COLOUR('',#246);
#35=MANIFOLD_SOLID_BREP('CUT',#37);
#36=MANIFOLD_SOLID_BREP('NOCUT',#38);
#37=CLOSED_SHELL('',(#48,#49,#50,#51,#52,#53,#54));
#38=CLOSED_SHELL('',(#55,#56,#57,#58,#59,#60));
#39=PLANE('',#285);
#40=PLANE('',#291);
#41=PLANE('',#298);
#42=CYLINDRICAL_SURFACE('',#283,3.969);
#43=CYLINDRICAL_SURFACE('',#286,3.969);
#44=CYLINDRICAL_SURFACE('',#289,3.969);
#45=CYLINDRICAL_SURFACE('',#293,3.969);
#46=TOROIDAL_SURFACE('',#279,3.21,0.759);
#47=TOROIDAL_SURFACE('',#281,3.21,0.759);
#48=ADVANCED_FACE('',(#65),#61,.F.);
#49=ADVANCED_FACE('',(#66),#62,.F.);
#50=ADVANCED_FACE('',(#67),#46,.T.);
#51=ADVANCED_FACE('',(#68),#47,.T.);
#52=ADVANCED_FACE('',(#69),#42,.T.);
#53=ADVANCED_FACE('',(#70),#39,.F.);
#54=ADVANCED_FACE('',(#71),#43,.T.);
#55=ADVANCED_FACE('',(#72),#44,.T.);
#56=ADVANCED_FACE('',(#73),#40,.F.);
#57=ADVANCED_FACE('',(#74),#45,.T.);
#58=ADVANCED_FACE('',(#75),#63,.T.);
#59=ADVANCED_FACE('',(#76),#64,.T.);
#60=ADVANCED_FACE('',(#77),#41,.F.);
#61=CONICAL_SURFACE('',#273,1.6371,88.);
#62=CONICAL_SURFACE('',#275,1.6371,88.);
#63=CONICAL_SURFACE('',#295,3.469,45.);
#64=CONICAL_SURFACE('',#297,3.469,45.);
#65=FACE_OUTER_BOUND('',#78,.T.);
#66=FACE_OUTER_BOUND('',#79,.T.);
#67=FACE_OUTER_BOUND('',#80,.T.);
#68=FACE_OUTER_BOUND('',#81,.T.);
#69=FACE_OUTER_BOUND('',#82,.T.);
#70=FACE_OUTER_BOUND('',#83,.T.);
#71=FACE_OUTER_BOUND('',#84,.T.);
#72=FACE_OUTER_BOUND('',#85,.T.);
#73=FACE_OUTER_BOUND('',#86,.T.);
#74=FACE_OUTER_BOUND('',#87,.T.);
#75=FACE_OUTER_BOUND('',#88,.T.);
#76=FACE_OUTER_BOUND('',#89,.T.);
#77=FACE_OUTER_BOUND('',#90,.T.);
#78=EDGE_LOOP('',(#107,#108,#109));
#79=EDGE_LOOP('',(#110,#111,#112));
#80=EDGE_LOOP('',(#113,#114,#115,#116));
#81=EDGE_LOOP('',(#117,#118,#119,#120));
#82=EDGE_LOOP('',(#121,#122,#123,#124));
#83=EDGE_LOOP('',(#125,#126));
#84=EDGE_LOOP('',(#127,#128,#129,#130));
#85=EDGE_LOOP('',(#131,#132,#133,#134));
#86=EDGE_LOOP('',(#135,#136));
#87=EDGE_LOOP('',(#137,#138,#139,#140));
#88=EDGE_LOOP('',(#141,#142,#143,#144));
#89=EDGE_LOOP('',(#145,#146,#147,#148));
#90=EDGE_LOOP('',(#149,#150));
#91=LINE('',#403,#99);
#92=LINE('',#405,#100);
#93=LINE('',#417,#101);
#94=LINE('',#419,#102);
#95=LINE('',#426,#103);
#96=LINE('',#431,#104);
#97=LINE('',#439,#105);
#98=LINE('',#443,#106);
#99=VECTOR('',#327,1.);
#100=VECTOR('',#328,1.);
#101=VECTOR('',#347,1.);
#102=VECTOR('',#348,1.);
#103=VECTOR('',#359,1.);
#104=VECTOR('',#362,1.);
#105=VECTOR('',#375,1.);
#106=VECTOR('',#378,1.);
#107=ORIENTED_EDGE('',*,*,#164,.T.);
#108=ORIENTED_EDGE('',*,*,#165,.T.);
#109=ORIENTED_EDGE('',*,*,#166,.F.);
#110=ORIENTED_EDGE('',*,*,#165,.F.);
#111=ORIENTED_EDGE('',*,*,#167,.T.);
#112=ORIENTED_EDGE('',*,*,#166,.T.);
#113=ORIENTED_EDGE('',*,*,#167,.F.);
#114=ORIENTED_EDGE('',*,*,#168,.T.);
#115=ORIENTED_EDGE('',*,*,#169,.F.);
#116=ORIENTED_EDGE('',*,*,#170,.F.);
#117=ORIENTED_EDGE('',*,*,#171,.F.);
#118=ORIENTED_EDGE('',*,*,#168,.F.);
#119=ORIENTED_EDGE('',*,*,#164,.F.);
#120=ORIENTED_EDGE('',*,*,#170,.T.);
#121=ORIENTED_EDGE('',*,*,#172,.T.);
#122=ORIENTED_EDGE('',*,*,#171,.T.);
#123=ORIENTED_EDGE('',*,*,#173,.F.);
#124=ORIENTED_EDGE('',*,*,#174,.T.);
#125=ORIENTED_EDGE('',*,*,#175,.F.);
#126=ORIENTED_EDGE('',*,*,#174,.F.);
#127=ORIENTED_EDGE('',*,*,#173,.T.);
#128=ORIENTED_EDGE('',*,*,#169,.T.);
#129=ORIENTED_EDGE('',*,*,#172,.F.);
#130=ORIENTED_EDGE('',*,*,#175,.T.);
#131=ORIENTED_EDGE('',*,*,#176,.F.);
#132=ORIENTED_EDGE('',*,*,#177,.T.);
#133=ORIENTED_EDGE('',*,*,#178,.T.);
#134=ORIENTED_EDGE('',*,*,#179,.T.);
#135=ORIENTED_EDGE('',*,*,#180,.F.);
#136=ORIENTED_EDGE('',*,*,#179,.F.);
#137=ORIENTED_EDGE('',*,*,#178,.F.);
#138=ORIENTED_EDGE('',*,*,#181,.T.);
#139=ORIENTED_EDGE('',*,*,#176,.T.);
#140=ORIENTED_EDGE('',*,*,#180,.T.);
#141=ORIENTED_EDGE('',*,*,#181,.F.);
#142=ORIENTED_EDGE('',*,*,#182,.T.);
#143=ORIENTED_EDGE('',*,*,#183,.T.);
#144=ORIENTED_EDGE('',*,*,#184,.F.);
#145=ORIENTED_EDGE('',*,*,#185,.T.);
#146=ORIENTED_EDGE('',*,*,#182,.F.);
#147=ORIENTED_EDGE('',*,*,#177,.F.);
#148=ORIENTED_EDGE('',*,*,#184,.T.);
#149=ORIENTED_EDGE('',*,*,#185,.F.);
#150=ORIENTED_EDGE('',*,*,#183,.F.);
#151=VERTEX_POINT('',#401);
#152=VERTEX_POINT('',#402);
#153=VERTEX_POINT('',#404);
#154=VERTEX_POINT('',#410);
#155=VERTEX_POINT('',#412);
#156=VERTEX_POINT('',#418);
#157=VERTEX_POINT('',#420);
#158=VERTEX_POINT('',#427);
#159=VERTEX_POINT('',#428);
#160=VERTEX_POINT('',#430);
#161=VERTEX_POINT('',#432);
#162=VERTEX_POINT('',#440);
#163=VERTEX_POINT('',#442);
#164=EDGE_CURVE('',#151,#152,#186,.T.);
#165=EDGE_CURVE('',#152,#153,#91,.T.);
#166=EDGE_CURVE('',#151,#153,#92,.T.);
#167=EDGE_CURVE('',#152,#151,#187,.T.);
#168=EDGE_CURVE('',#152,#154,#188,.T.);
#169=EDGE_CURVE('',#155,#154,#189,.T.);
#170=EDGE_CURVE('',#151,#155,#190,.T.);
#171=EDGE_CURVE('',#154,#155,#191,.T.);
#172=EDGE_CURVE('',#156,#154,#93,.T.);
#173=EDGE_CURVE('',#157,#155,#94,.T.);
#174=EDGE_CURVE('',#157,#156,#192,.T.);
#175=EDGE_CURVE('',#156,#157,#193,.T.);
#176=EDGE_CURVE('',#158,#159,#95,.T.);
#177=EDGE_CURVE('',#158,#160,#194,.T.);
#178=EDGE_CURVE('',#160,#161,#96,.T.);
#179=EDGE_CURVE('',#161,#159,#195,.T.);
#180=EDGE_CURVE('',#159,#161,#196,.T.);
#181=EDGE_CURVE('',#160,#158,#197,.T.);
#182=EDGE_CURVE('',#160,#162,#97,.T.);
#183=EDGE_CURVE('',#162,#163,#198,.T.);
#184=EDGE_CURVE('',#158,#163,#98,.T.);
#185=EDGE_CURVE('',#163,#162,#199,.T.);
#186=CIRCLE('',#272,3.21);
#187=CIRCLE('',#274,3.21);
#188=CIRCLE('',#276,0.759);
#189=CIRCLE('',#277,3.969);
#190=CIRCLE('',#278,0.759);
#191=CIRCLE('',#280,3.969);
#192=CIRCLE('',#282,3.969);
#193=CIRCLE('',#284,3.969);
#194=CIRCLE('',#287,3.969);
#195=CIRCLE('',#288,3.969);
#196=CIRCLE('',#290,3.969);
#197=CIRCLE('',#292,3.969);
#198=CIRCLE('',#294,2.969);
#199=CIRCLE('',#296,2.969);
#200=PRESENTATION_LAYER_ASSIGNMENT('1','Layer 1',(#260,#261,#262,#267,#268,
#269,#270,#271,#35,#36));
#201=PRESENTATION_LAYER_ASSIGNMENT('2','Layer 2',(#263,#264,#265));
#202=PRESENTATION_LAYER_ASSIGNMENT('3','Layer 3',(#266));
#203=STYLED_ITEM('',(#217),#260);
#204=STYLED_ITEM('',(#218),#261);
#205=STYLED_ITEM('',(#219),#262);
#206=STYLED_ITEM('',(#220),#263);
#207=STYLED_ITEM('',(#221),#264);
#208=STYLED_ITEM('',(#222),#265);
#209=STYLED_ITEM('',(#223),#266);
#210=STYLED_ITEM('',(#224),#267);
#211=STYLED_ITEM('',(#225),#268);
#212=STYLED_ITEM('',(#226),#269);
#213=STYLED_ITEM('',(#227),#270);
#214=STYLED_ITEM('',(#228),#271);
#215=STYLED_ITEM('',(#229),#35);
#216=STYLED_ITEM('',(#230),#36);
#217=PRESENTATION_STYLE_ASSIGNMENT((#231));
#218=PRESENTATION_STYLE_ASSIGNMENT((#232));
#219=PRESENTATION_STYLE_ASSIGNMENT((#233));
#220=PRESENTATION_STYLE_ASSIGNMENT((#234));
#221=PRESENTATION_STYLE_ASSIGNMENT((#235));
#222=PRESENTATION_STYLE_ASSIGNMENT((#236));
#223=PRESENTATION_STYLE_ASSIGNMENT((#237));
#224=PRESENTATION_STYLE_ASSIGNMENT((#238));
#225=PRESENTATION_STYLE_ASSIGNMENT((#239));
#226=PRESENTATION_STYLE_ASSIGNMENT((#240));
#227=PRESENTATION_STYLE_ASSIGNMENT((#241));
#228=PRESENTATION_STYLE_ASSIGNMENT((#242));
#229=PRESENTATION_STYLE_ASSIGNMENT((#25));
#230=PRESENTATION_STYLE_ASSIGNMENT((#26));
#231=CURVE_STYLE('',#247,POSITIVE_LENGTH_MEASURE(0.13),#243);
#232=CURVE_STYLE('',#248,POSITIVE_LENGTH_MEASURE(0.13),#243);
#233=CURVE_STYLE('',#249,POSITIVE_LENGTH_MEASURE(0.13),#243);
#234=CURVE_STYLE('',#250,POSITIVE_LENGTH_MEASURE(0.13),#244);
#235=CURVE_STYLE('',#251,POSITIVE_LENGTH_MEASURE(0.13),#244);
#236=CURVE_STYLE('',#252,POSITIVE_LENGTH_MEASURE(0.18),#243);
#237=CURVE_STYLE('',#253,POSITIVE_LENGTH_MEASURE(0.13),#244);
#238=CURVE_STYLE('',#254,POSITIVE_LENGTH_MEASURE(0.13),#243);
#239=CURVE_STYLE('',#255,POSITIVE_LENGTH_MEASURE(0.13),#243);
#240=CURVE_STYLE('',#256,POSITIVE_LENGTH_MEASURE(0.13),#244);
#241=CURVE_STYLE('',#257,POSITIVE_LENGTH_MEASURE(0.13),#243);
#242=CURVE_STYLE('',#258,POSITIVE_LENGTH_MEASURE(0.13),#243);
#243=COLOUR_RGB('Strong Stone',0.576470588235294,0.54508278019379,0.392156862745098);
#244=COLOUR_RGB('Brown',0.6,0.4,0.2);
#245=COLOUR_RGB('cutting part',0.8,0.8,0.8);
#246=COLOUR_RGB('non-cutting part and shank',0.501960784313725,0.501960784313725,
0.501960784313725);
#247=DRAUGHTING_PRE_DEFINED_CURVE_FONT('continuous');
#248=DRAUGHTING_PRE_DEFINED_CURVE_FONT('continuous');
#249=DRAUGHTING_PRE_DEFINED_CURVE_FONT('continuous');
#250=DRAUGHTING_PRE_DEFINED_CURVE_FONT('continuous');
#251=DRAUGHTING_PRE_DEFINED_CURVE_FONT('continuous');
#252=DRAUGHTING_PRE_DEFINED_CURVE_FONT('continuous');
#253=DRAUGHTING_PRE_DEFINED_CURVE_FONT('continuous');
#254=DRAUGHTING_PRE_DEFINED_CURVE_FONT('continuous');
#255=DRAUGHTING_PRE_DEFINED_CURVE_FONT('continuous');
#256=DRAUGHTING_PRE_DEFINED_CURVE_FONT('continuous');
#257=DRAUGHTING_PRE_DEFINED_CURVE_FONT('continuous');
#258=DRAUGHTING_PRE_DEFINED_CURVE_FONT('continuous');
#259=AXIS2_PLACEMENT_3D('',#387,#299,#300);
#260=AXIS2_PLACEMENT_3D('',#388,#301,#302);
#261=AXIS2_PLACEMENT_3D('',#389,#303,#304);
#262=AXIS2_PLACEMENT_3D('',#390,#305,#306);
#263=AXIS2_PLACEMENT_3D('CIP',#391,#307,#308);
#264=AXIS2_PLACEMENT_3D('PCS',#392,#309,#310);
#265=AXIS2_PLACEMENT_3D('MCS',#393,#311,#312);
#266=AXIS2_PLACEMENT_3D('TEMP_R2_1',#394,#313,#314);
#267=AXIS2_PLACEMENT_3D('',#395,#315,#316);
#268=AXIS2_PLACEMENT_3D('',#396,#317,#318);
#269=AXIS2_PLACEMENT_3D('TEMP_R2_2',#397,#319,#320);
#270=AXIS2_PLACEMENT_3D('',#398,#321,#322);
#271=AXIS2_PLACEMENT_3D('',#399,#323,#324);
#272=AXIS2_PLACEMENT_3D('',#400,#325,#326);
#273=AXIS2_PLACEMENT_3D('',#406,#329,#330);
#274=AXIS2_PLACEMENT_3D('',#407,#331,#332);
#275=AXIS2_PLACEMENT_3D('',#408,#333,#334);
#276=AXIS2_PLACEMENT_3D('',#409,#335,#336);
#277=AXIS2_PLACEMENT_3D('',#411,#337,#338);
#278=AXIS2_PLACEMENT_3D('',#413,#339,#340);
#279=AXIS2_PLACEMENT_3D('',#414,#341,#342);
#280=AXIS2_PLACEMENT_3D('',#415,#343,#344);
#281=AXIS2_PLACEMENT_3D('',#416,#345,#346);
#282=AXIS2_PLACEMENT_3D('',#421,#349,#350);
#283=AXIS2_PLACEMENT_3D('',#422,#351,#352);
#284=AXIS2_PLACEMENT_3D('',#423,#353,#354);
#285=AXIS2_PLACEMENT_3D('',#424,#355,#356);
#286=AXIS2_PLACEMENT_3D('',#425,#357,#358);
#287=AXIS2_PLACEMENT_3D('',#429,#360,#361);
#288=AXIS2_PLACEMENT_3D('',#433,#363,#364);
#289=AXIS2_PLACEMENT_3D('',#434,#365,#366);
#290=AXIS2_PLACEMENT_3D('',#435,#367,#368);
#291=AXIS2_PLACEMENT_3D('',#436,#369,#370);
#292=AXIS2_PLACEMENT_3D('',#437,#371,#372);
#293=AXIS2_PLACEMENT_3D('',#438,#373,#374);
#294=AXIS2_PLACEMENT_3D('',#441,#376,#377);
#295=AXIS2_PLACEMENT_3D('',#444,#379,#380);
#296=AXIS2_PLACEMENT_3D('',#445,#381,#382);
#297=AXIS2_PLACEMENT_3D('',#446,#383,#384);
#298=AXIS2_PLACEMENT_3D('',#447,#385,#386);
#299=DIRECTION('',(0.,0.,1.));
#300=DIRECTION('',(1.,0.,0.));
#301=DIRECTION('',(0.,0.,1.));
#302=DIRECTION('',(1.,0.,0.));
#303=DIRECTION('',(0.,0.,1.));
#304=DIRECTION('',(1.,0.,0.));
#305=DIRECTION('',(0.,0.,1.));
#306=DIRECTION('',(1.,0.,0.));
#307=DIRECTION('',(0.,0.,1.));
#308=DIRECTION('',(1.,0.,0.));
#309=DIRECTION('',(0.,0.,1.));
#310=DIRECTION('',(1.,0.,0.));
#311=DIRECTION('',(0.,0.,1.));
#312=DIRECTION('',(1.,0.,0.));
#313=DIRECTION('',(0.,0.,1.));
#314=DIRECTION('',(1.,0.,0.));
#315=DIRECTION('',(0.,0.,1.));
#316=DIRECTION('',(1.,0.,0.));
#317=DIRECTION('',(0.,0.,1.));
#318=DIRECTION('',(1.,0.,0.));
#319=DIRECTION('',(0.,0.,1.));
#320=DIRECTION('',(1.,0.,0.));
#321=DIRECTION('',(0.,0.,1.));
#322=DIRECTION('',(1.,0.,0.));
#323=DIRECTION('',(0.,0.,1.));
#324=DIRECTION('',(1.,0.,0.));
#325=DIRECTION('',(0.,0.,-1.));
#326=DIRECTION('',(0.,1.,0.));
#327=DIRECTION('',(0.,0.999390827019096,0.0348994967024999));
#328=DIRECTION('',(0.,-0.999390827019096,0.0348994967024999));
#329=DIRECTION('',(0.,0.,-1.));
#330=DIRECTION('',(0.,1.,-1.12725201661553E-18));
#331=DIRECTION('',(0.,0.,-1.));
#332=DIRECTION('',(0.,-1.,0.));
#333=DIRECTION('',(0.,0.,-1.));
#334=DIRECTION('',(0.,1.,-1.12725201661553E-18));
#335=DIRECTION('',(-1.,0.,0.));
#336=DIRECTION('',(0.,-1.,0.));
#337=DIRECTION('',(0.,0.,1.));
#338=DIRECTION('',(0.,1.,0.));
#339=DIRECTION('',(1.,0.,0.));
#340=DIRECTION('',(0.,1.,0.));
#341=DIRECTION('',(0.,0.,-1.));
#342=DIRECTION('',(0.,1.,0.));
#343=DIRECTION('',(0.,0.,1.));
#344=DIRECTION('',(0.,-1.,0.));
#345=DIRECTION('',(0.,0.,-1.));
#346=DIRECTION('',(0.,1.,0.));
#347=DIRECTION('',(0.,0.,-1.));
#348=DIRECTION('',(0.,0.,-1.));
#349=DIRECTION('',(0.,0.,-1.));
#350=DIRECTION('',(0.,1.,0.));
#351=DIRECTION('',(0.,0.,-1.));
#352=DIRECTION('',(0.,1.,0.));
#353=DIRECTION('',(0.,0.,-1.));
#354=DIRECTION('',(0.,-1.,0.));
#355=DIRECTION('',(0.,0.,-1.));
#356=DIRECTION('',(1.,0.,0.));
#357=DIRECTION('',(0.,0.,-1.));
#358=DIRECTION('',(0.,1.,0.));
#359=DIRECTION('',(0.,0.,-1.));
#360=DIRECTION('',(0.,0.,-1.));
#361=DIRECTION('',(0.,1.,0.));
#362=DIRECTION('',(0.,0.,-1.));
#363=DIRECTION('',(0.,0.,1.));
#364=DIRECTION('',(0.,-1.,0.));
#365=DIRECTION('',(0.,0.,-1.));
#366=DIRECTION('',(0.,1.,0.));
#367=DIRECTION('',(0.,0.,1.));
#368=DIRECTION('',(0.,1.,0.));
#369=DIRECTION('',(0.,0.,1.));
#370=DIRECTION('',(-1.,0.,0.));
#371=DIRECTION('',(0.,0.,-1.));
#372=DIRECTION('',(0.,-1.,0.));
#373=DIRECTION('',(0.,0.,-1.));
#374=DIRECTION('',(0.,1.,0.));
#375=DIRECTION('',(0.,0.707106781186598,0.707106781186498));
#376=DIRECTION('',(0.,0.,-1.));
#377=DIRECTION('',(0.,-1.,0.));
#378=DIRECTION('',(0.,-0.707106781186598,0.707106781186498));
#379=DIRECTION('',(0.,0.,-1.));
#380=DIRECTION('',(0.,1.,2.76596243786593E-17));
#381=DIRECTION('',(0.,0.,-1.));
#382=DIRECTION('',(0.,1.,0.));
#383=DIRECTION('',(0.,0.,-1.));
#384=DIRECTION('',(0.,1.,2.76596243786593E-17));
#385=DIRECTION('',(0.,0.,-1.));
#386=DIRECTION('',(0.,1.,0.));
#387=CARTESIAN_POINT('',(0.,0.,0.));
#388=CARTESIAN_POINT('',(0.,0.,0.));
#389=CARTESIAN_POINT('',(0.,0.,0.));
#390=CARTESIAN_POINT('',(0.,0.,0.));
#391=CARTESIAN_POINT('',(0.,0.,0.));
#392=CARTESIAN_POINT('',(0.,0.,69.85));
#393=CARTESIAN_POINT('',(0.,0.,41.275));
#394=CARTESIAN_POINT('',(0.,0.,0.));
#395=CARTESIAN_POINT('',(0.,0.,0.));
#396=CARTESIAN_POINT('',(0.,0.,0.));
#397=CARTESIAN_POINT('',(0.,0.,0.));
#398=CARTESIAN_POINT('',(0.,0.,0.));
#399=CARTESIAN_POINT('',(0.,0.,0.));
#400=CARTESIAN_POINT('',(0.,0.,0.));
#401=CARTESIAN_POINT('',(0.,3.21,0.));
#402=CARTESIAN_POINT('',(0.,-3.21,0.));
#403=CARTESIAN_POINT('',(0.,-3.21,0.));
#404=CARTESIAN_POINT('',(0.,0.,0.1120956700685));
#405=CARTESIAN_POINT('',(0.,3.21,0.));
#406=CARTESIAN_POINT('',(0.,0.,0.05492687833356));
#407=CARTESIAN_POINT('',(0.,0.,0.));
#408=CARTESIAN_POINT('',(0.,0.,0.05492687833356));
#409=CARTESIAN_POINT('',(0.,-3.21,0.759));
#410=CARTESIAN_POINT('',(0.,-3.969,0.759));
#411=CARTESIAN_POINT('',(0.,0.,0.759));
#412=CARTESIAN_POINT('',(0.,3.969,0.759));
#413=CARTESIAN_POINT('',(0.,3.21,0.759));
#414=CARTESIAN_POINT('',(0.,0.,0.759));
#415=CARTESIAN_POINT('',(0.,0.,0.759));
#416=CARTESIAN_POINT('',(0.,0.,0.759));
#417=CARTESIAN_POINT('',(0.,-3.969,19.05));
#418=CARTESIAN_POINT('',(0.,-3.969,19.05));
#419=CARTESIAN_POINT('',(0.,3.969,19.05));
#420=CARTESIAN_POINT('',(0.,3.969,19.05));
#421=CARTESIAN_POINT('',(0.,0.,19.05));
#422=CARTESIAN_POINT('',(0.,0.,73.3425));
#423=CARTESIAN_POINT('',(0.,0.,19.05));
#424=CARTESIAN_POINT('',(150.,150.,19.05));
#425=CARTESIAN_POINT('',(0.,0.,73.3425));
#426=CARTESIAN_POINT('',(0.,3.969,68.85));
#427=CARTESIAN_POINT('',(0.,3.969,68.85));
#428=CARTESIAN_POINT('',(0.,3.969,19.05));
#429=CARTESIAN_POINT('',(0.,0.,68.85));
#430=CARTESIAN_POINT('',(0.,-3.969,68.85));
#431=CARTESIAN_POINT('',(0.,-3.969,68.85));
#432=CARTESIAN_POINT('',(0.,-3.969,19.05));
#433=CARTESIAN_POINT('',(0.,0.,19.05));
#434=CARTESIAN_POINT('',(0.,0.,73.3425));
#435=CARTESIAN_POINT('',(0.,0.,19.05));
#436=CARTESIAN_POINT('',(-150.,150.,19.05));
#437=CARTESIAN_POINT('',(0.,0.,68.85));
#438=CARTESIAN_POINT('',(0.,0.,73.3425));
#439=CARTESIAN_POINT('',(0.,-2.969,69.85));
#440=CARTESIAN_POINT('',(0.,-2.969,69.85));
#441=CARTESIAN_POINT('',(0.,0.,69.85));
#442=CARTESIAN_POINT('',(0.,2.969,69.85));
#443=CARTESIAN_POINT('',(0.,2.969,69.85));
#444=CARTESIAN_POINT('',(0.,0.,69.35));
#445=CARTESIAN_POINT('',(0.,0.,69.85));
#446=CARTESIAN_POINT('',(0.,0.,69.35));
#447=CARTESIAN_POINT('',(0.,0.,69.85));
#448=MECHANICAL_DESIGN_GEOMETRIC_PRESENTATION_REPRESENTATION('',(#203,#204,
#205,#206,#207,#208,#209,#210,#211,#212,#213,#214,#215,#216),#449);
#449=(
GEOMETRIC_REPRESENTATION_CONTEXT(3)
GLOBAL_UNCERTAINTY_ASSIGNED_CONTEXT((#450))
GLOBAL_UNIT_ASSIGNED_CONTEXT((#456,#452,#451))
REPRESENTATION_CONTEXT('VQMHVRBFD5-16R030','TOP_LEVEL_ASSEMBLY_PART')
);
#450=UNCERTAINTY_MEASURE_WITH_UNIT(LENGTH_MEASURE(2.E-5),#456,
'DISTANCE_ACCURACY_VALUE','Maximum Tolerance applied to model');
#451=(
NAMED_UNIT(*)
SI_UNIT($,.STERADIAN.)
SOLID_ANGLE_UNIT()
);
#452=(
CONVERSION_BASED_UNIT('DEGREE',#454)
NAMED_UNIT(#453)
PLANE_ANGLE_UNIT()
);
#453=DIMENSIONAL_EXPONENTS(0.,0.,0.,0.,0.,0.,0.);
#454=PLANE_ANGLE_MEASURE_WITH_UNIT(PLANE_ANGLE_MEASURE(0.0174532925),#455);
#455=(
NAMED_UNIT(*)
PLANE_ANGLE_UNIT()
SI_UNIT($,.RADIAN.)
);
#456=(
LENGTH_UNIT()
NAMED_UNIT(*)
SI_UNIT(.MILLI.,.METRE.)
);
ENDSEC;
END-ISO-10303-21;
